PrimaNota.ru - самый крупный в мире бесплатный архив песенных текстов, аккордов, табулатур и нот


Marc - Hörsprechgarnitur - таба, видео

Регистрация Запомнить меня
Войти через:  Facebook Google Twitter Vk Yandex Mail.ru

Marc - Hörsprechgarnitur - таба, видео

Печатать
Просмотров: 45
 -------------------------------------------------------------------------------
                             SONG NAME - Band Name
-------------------------------------------------------------------------------
Tabbed by: Senjamin Baenger
E-mail:senjamin.baenger@web.de

Tuning: Capo on 3rd fret

Verse:
                                                                 
e|-------3-------2-------3-------2---2---2---2---2--------3---6--3-----------|
B|-0-----3-0-1---3-0-----3-0-1---3---3---3---3---3--------3---6--3-----------|
G|---2---0-------2---2---0-------2---2---2---2---2--------0---0--0-----------|    2x
D|-------------0---------------0-------0-------0-----------------0-----------|
A|---------------------------------0-------0---------------------2-----------|
E|-----3---------------3----------------------------0-2-3---6----3-----------|

Refrain:

   C    G    D    A#

e|-0----3----2----6--|
B|-1----3----3----6--|
G|-2----0----2----0--|    
D|-0----0----0----0--|
A|-3----2----x----5--|
E|-x----3----x----6--|

          C                              G
Über sein Headset telefoniert, über sein Headset telefoniert 
          D                              G       A#    G
Über sein Headset telefoniert, über sein Headset telefoniert
Добавлено: 02.01.2016
Другие материалы по этой песне:
  • Аккорды и текст

Страница создана 02.01.2016
http://primanota.ru/marc/horsprechgarnitur-chords.htm
Привет, Гость.
Предлагаем пройти революционный курс по гитаре.
Подарок от PrimaNota.Ru, забирай!