PrimaNota.ru - самый крупный в мире бесплатный архив песенных текстов, аккордов, табулатур и нот


Marc-uwe Kling - Hoersprechgarnitur - таба, видео

Регистрация Запомнить меня
Войти через:  Facebook Google Twitter Vk Yandex Mail.ru

Marc-uwe Kling - Hoersprechgarnitur - таба, видео

Печатать
Просмотров: 63
Verse

  G        D       G       C   *   D               G   *   G
e|---3-------2-------3-------0---0---2---2---2-------3---6-3-----------------|
B|---0-------3-------0-------1---2---3---3---3-------0---0-0-----------------|
G|---0-------2-------0-------0---0---2---2---2-------0---0-0-----------------|
D|---------0-----------------------0-------0---------------------------------|
A|-----2-3-----2-0-----0-2-3---4-------0-------------------------------------|
E|-3---------------3---------------------------0-2-3---6--(3)----------------|

Chorus

  C                G                D                   G   *  G
e|---0---0---0---0----3---3---3---3---2---2---2---2------3---6-3-------------|
B|---1---1---1---1----0---0---0---0---3---3---3---3------0---0-0-------------|
G|---0---0---0---0----0---0---0---0---2---2---2---2------0---0-0-------------|
D|----------------------------------0-------0--------------------------------|
A|-3-------3--------2-------2-----------0-------0----------------------------|
E|-----3-------3--------3-------3-------------------0-2-3--6--(3)------------|


Das Sternchen bedeutet einfach nur, dass ihr nicht umgreifen müsst, sondern
nur den Griff um 1 bzw. 3 Bünde nach oben schiebt. Der letzte Akkord wird sofort
gemuted - sowohl beim Verse als auch beim Chorus.
Добавлено: 03.09.2015
Вам также может быть интересно:
Другие материалы по этой песне:
  • Аккорды и текст

Страница создана 03.09.2015
http://primanota.ru/marc-uwe-kling/hoersprechgarnitur-chords.htm
Привет, Гость.
Предлагаем пройти революционный курс по гитаре.
Подарок от PrimaNota.Ru, забирай!