PrimaNota.ru - самый крупный в мире бесплатный архив песенных текстов, аккордов, табулатур и нот


Marc Shaiman - Flipped Suite - таба, видео

Регистрация Запомнить меня
Войти через:  Facebook Google Twitter Vk Yandex Mail.ru

Marc Shaiman - Flipped Suite - таба, видео

Печатать
Просмотров: 58
Уроки эстрадного вокала в Санкт-Петербурге
-------------------------------------------------------------------------------
                             Flipped Suite - Marc Shaiman
-------------------------------------------------------------------------------
Tabbed by: Rob Chen
E-mail: robcornerstone@gmail.com

Tuning: Standard

e|--------0-----------------0---------------------------------------------------------------------------|
B|-----------3-----2-----------3-----2-----------0------------------------------------------------------|
G|-----2-----------------------------------------------2-----------2------------------------------------|
D|-----------4-----2-----------4-----2-----------0-------------4---2------------------------------------|
A|-----------0-----------------0-----------------------------------------------------0------------------|
E|------------------------------------------------------------------------------------------------------|

e|--------0-----------------0-------------------------------------------------------------------------5-|
B|-----------3-----2-----------3-----2-----------0-------------------------------------------------5----|
G|-----2-----------------------------------------------2-----------2----------------------------6-------|
D|-----------4-----2-----------4-----2-----------0-------------4---2------------------------------------|
A|-----------0-----------------0-----------------------------------------------------0------------------|
E|------------------------------------------------------------------------------------------------------|

e|-----------4-----------2-----0---------------------------------------------|
B|--------------------------------------------3--2-----------0---------------|
G|-----------------------------------------2-----------------------2---------|
D|-----------0--------------------------2------------------------------------|
A|-----------------------------0-----------------4---------------------------|
E|-----------------------------------------------------------------2---------|

e|-----------------------------------------------0-----------0---------------|
B|-----------3-----2-----0-----------------------------------------3---------|
G|-----------------------------------2-----1-----------2---------------------|
D|-----------0-----------------------2-----2-----------------------0---------|
A|-----------------------------------------------0---------------------------|
E|-----------------------------0---------------------------------------------|

e|-----------------------------------------------0-----------0---------------|
B|-----------2-----------2-----3-----------------------------------3---------|
G|--1--2--------------------------------1--2-----------2----------------2----|
D|-----------------2-----------0-----------------------------------0---------|
A|-----------0-----------------------------------0---------------------------|
E|---------------------------------------------------------------------------|

e|-----------------------------4--------------0--5-----------------0---------|
B|------0----------5---------------------------------------------------------|
G|-----------6-----------------------------6---------------------------------|
D|-----------------------6-----------------------4---------------------------|
A|-----------4-----------------------------------------------------0---------|
E|---------------------------------------------------------------------------|

e|---------------------------------------------------------------------------|
B|-----------2-----------0---------------------------------------------------|
G|-----------------------------2---------------------------------------------|
D|---------------------------------------------------------------------------|
A|-----------4---------------------------------------------------------------|
E|-----------------------------2---------------------------------------------|


e|---------------------------------------------------------------------------|
B|-----------3-----2-----0---------------------------------------------------|
G|-----------------------------------2-----1-----2---------------------------|
D|-----------0-----------------------2-----2-----2---------------------------|
A|-----------------------------------------------0---------------------------|
E|-----------------------------0---------------------------------------------|
Добавлено: 10.06.2016
Другие материалы по этой песне:
  • Аккорды и текст

Страница создана 10.06.2016
http://primanota.ru/marc-shaiman/flipped-suite-chords.htm
Привет, Гость.
Предлагаем пройти революционный курс по гитаре.
Подарок от PrimaNota.Ru, забирай!