PrimaNota.ru - самый крупный в мире бесплатный архив песенных текстов, аккордов, табулатур и нот


Marc Ribot - Postcard From Ny - таба, видео

Регистрация Запомнить меня
Войти через:  Facebook Google Twitter Vk Yandex Mail.ru

Marc Ribot - Postcard From Ny - таба, видео

Печатать
Просмотров: 117
Marc Ribot - Postcard from Ny

E||---------|------------------------|----2------------------------|
B||---0h5-5-|------------------------|------5p3p0h3----------------|
G||---------|--------2---------------|--2--------------------------|
D||---------|------------------------|-------------------4---------|
A||---------|-----4---------4-----4--|----------------2---------2--|
E||---------|--2---------------2-----|------------0----------------|



-------------------------|---------------2--------------|
----------0h3-3----------|-----------------5p3p0-5------|
--------------------2----|-------------2----------------|
-------------------------|------------------------------|
-------2---------4-------|----4-----4----------------2--|
--0-----------2----------|-------2---------------0------|



--------------------------|------------------------|
--------------------0-----|--3---------------------|
--0-----------------------|----------2-------------|
--4----4--2------4--------|-------4----------4-----|
-------------5------------|----2----------------2--|
--------------------------|------------------------|



-------2----------------------------|----------------------------|
---------5p3p0-5--------------------|-----3----2-----------------|
-----2------------------------------|------------------2---------|
--4------------------5-----4--5-----|--4-------------------------|
------------------2--------------5--|---------------4-------4----|
------------------------------------|------------2-------------2-|



------------------------|----------------------|---------|
------0--------------0--|---------------0------|---0h5-5-|
------2--------------2--|---------------2------|---------|
------------------------|----------------------|---------|
---4--------4-----4-----|------4-----4---------|---------|
---------------2--------|---------2------------|---------|



------------------------|----2------------------------|
------------------------|------5p3p0h3----------------|
--------2---------------|--2----------------0---------|
------------------------|-------------------4---------|
-----4---------4-----4--|----------------2---------2--|
--2---------------2-----|------------0----------------|



-------------------------|---------------2--------------|
----------0h3-3----------|-----------------5p3p0-5------|
--------------------2----|-------------2----------------|
-----------------4-------|----4-----4-------------------|
-------2------2----------|-------2-------------------2--|
--0----------------------|-----------------------0------|



--------------------8p-7--7-|-----5-----------------|--7--5-----3-----------|
-----------------0----------|-----------5-----------|--5-----5--------3-----|
--0-----------------------5-|--------5--------------|--5--------------4-----|
-------4--2--0--------------|-----------------------|-----------------------|
----------------------------|-----0-----------7--0--|--------------5--------|
----------------------------|-----------------------|-----------3-----------|



-----------5------2--------|------------------------|-----0-----------------|
---------------------------|------------------------|-----0--------------0--|
------------------------2--|---------------2--------|-----1--------------1--|
---------------------------|---------------2--------|-----------------------|
--5-----5-----0h2----4-----|------4-----4--4--4-----|--2---------2-------2--|
-----3------------2--------|---------2-----------0--|--0------------0-------|



--0-----0--0--0h-2--2--|--0--0----------0--0--0--|--2--3--2--0-----------0--|
-----------------------|--------3----------------|--------------3--------0--|
--------0--0--0--------|-----2----------0--0--0--|--2--2--2--0-----------0--|
-----------------------|-------------------------|-----------------------2--|
-----2--------------0--|-------------------------|-----0--------------2-----|
--0--------------------|-----------0-------------|-----------------0--------|



0--0--2--2--0--0-----0--|--------------------------|-----------------------|
------------------3-----|--3--3--2--2--0--0--------|-----------------------|
------------------------|--0--0--------------2--2--|--0--------0-----------|
------------------------|--------------------------|-----------4-----------|
---------0-----------2--|-----2--------------------|--------2---------2----|
------------------------|-----------------0--------|-----0---------------0-|



-----------------------|--------------0-----0--|--0--0--2--2--0--0--------|
-----------------------|--------------------2--|--2--2--2--2--0-----3-----|
----0----------0-------|---------0-------------|-----------------0--------|
----4----------4-------|---------4-------2-----|--------------------------|
------------2-------2--|--------------0--------|-----------------------0--|
---------0-------------|----0------------------|-----------0--------------|



-----0--0--0--2--3--2--0--|----------0--0--0--2--2--|
-----------------0--------|--3----------2--2--------|
--2-----2--2--2-----2--0--|----------------------0--|
--------------------------|----------2--------------|
--------------------------|-------------------------|
-----------------0--------|-----0----------------0--|



--0-2-0-----0--------------|--------------------------|---------------------|
---------3-----3--3--2--2--|--0--0--------------------|---------------------|
---------------------------|--------2--2--0--------0--|--------------0------|
---------------2--2--2--2--|-----------------------4--|--------------4------|
------------0--------------|--------------------2-----|-----------2---------|
---------------------------|-----------------0--------|--------0------------|



-----------------------|----------------|------------------------|
-----------------------|------------0h5-|--5---------------------|
----------0------------|-----0----------|--------2---------------|
----------4------------|-----4----------|------------------------|
-------2---------2-----|--2-------------|-----4---------4-----4--|
----0---------------0--|----------------|--2---------------2-----|



----2------------------------|-------------------------|
------5p3p0h3----------------|----------0h3-3----------|
--2----------------0---------|--------------------2----|
-------------------4---------|-----------------4-------|
----------------2---------2--|-------2------2----------|
------------0----------------|--0----------------------|



---------------2--------------|--------------------8-----7-|
-----------------5p3p0-5------|----------------------------|
-------------2----------------|--0--------------5-----5----|
----4-----4-------------------|--4----4--2--0--------------|
-------2-------------------2--|----------------------------|
-----------------------0------|----------------------------|



-----5-----------------|--7--5-----3-------------|----------5----2--------|
-----------5-----------|--------5--------3-------|------------------------|
--------5--------------|--5--------------4-------|---------------------2--|
-----------------------|-------------------------|------------------------|
-----0-----------7--0--|--------------5-------5--|-------5----------4-----|
-----------------------|-----------3-------------|----3----------2--------|



----------------------|------------------------|----------0-------------|
---------------0------|-----------0------------|-----0------------------|
---------------2------|-----------2------------|-----2-------------2----|
----------------------|------------------------|------------------------|
------4-----4---------|--4-----4---------4-----|--4-------------4-------|
---------2--0---------|-----2---------------2--|-------------2----------|



-----------------------|-----------------------|------------------------|
-----------------------|--0--------------------|--------3---------------|
------------2----------|--0---------------0----|--------2---------------|
-----------------------|--4---4----------------|-----4---------4-----4--|
----4-------4-------2--|----------2-------2----|--2---------------2-----|
-------2---------0-----|-------------0---------|------------------------|



---------------------8--|----7-----------------|-------------------------|
--3-----------0---------|---------------1------|-----------1----------0--|
--2-----------0------5--|----5----------0------|-----------0----------0--|
-----4--------4------0--|------------2---------|--2-----2----------------|
-----------2------------|---------0------------|-----0-------------5-----|
--------0---------------|----------------------|----------------3--------|



----------------------|------------------------|------------------------|
--------------0-------|-----0---------------0--|-----------0------------|
----------------------|-----2---------------2--|-----------1------------|
--------------0-------|------------------------|------------------------|
------5---------------|--4---------4-----4-----|--4-----2---------2-----|
---------3---------2--|---------------2--------|-----0---------------0--|



---------0--0--0--0--0--|--2--2--0--0-----------0--|----2--3--2--0----------|
------------------------|--------------3--0--------|----------------3--0----|
---------0--------------|-----2--0--------------0--|----2--2--2--0----------|
---------x--------------|--------------4-----------|----------------4-------|
----2----x-----2--------|-----0--------------2-----|-------0--------------2-|
------------------------|-----------------0--------|-------------------0----|



--0--0--0--2--2--0--0-----|--0-----------------------|
-----------------------3--|-----3--3--2--2--0--0-----|
--0--0--0--2--2--0--0-----|-----------------------2--|
-----------------------4--|--------------------------|
--------------0-----------|--------2-----------0-----|
--------------------------|--0-----------------------|



------------0--0--0--2--|--2--0--0-----------0----|--0--2--3--2--0-----0----|
------------------------|-----------3-------------|-----------------3--0----|
2--0--------0--0--0--2--|--2--0--0-----------0----|--0--2--4--2--0----------|
2-----------------------|-------------------------|-----------------4-------|
---------2--------------|--0--------------2-------|--------0--------------2-|
------0-----------------|--------------0----------|--------------------0----|



--0--0--0--2--2--0-2-0-----|--0-----------------------|
------------------------3--|--0--3--3--2--2--0--0-----|
--0--0--0--2--2--0-2-0--0--|--0-----------------2--2--|
------------------------4--|-----4--4--2--2--0--------|
--------------0------------|--------------------0-----|
---------------------------|--0-----------------------|



--------------0--0--0--2--|--2--0--0-----------0--0--|
--------------------------|-----------3--0-----------|
--2--0--------0--0--0--2--|--2--0--0-----------0--0--|
--------------------------|-----------4--------------|
-----------2--------------|--0--------------2--------|
--------0-----------------|--------------0-----------|



--0--2--3--2--0-----------|--0--0--0--2--2--0-2-0-----|
--------0--------3--0-----|------------------------3--|
--0--2--2--2--0-----------|--0--0--0--2--2--0-2-0-----|
-----------------4--------|------------------------4--|
--------0--------------2--|---------------------------|
--------------------0-----|---------------------------|



--0-----------------------|--------------0--0--0-2-2--|
--0--3--3--2--2--0--0-----|---------------------------|
--0--------------------2--|--2--0--------0--0--0-2-2--|
-----4--4--2--2--0--------|--2------------------------|
--------------------0-----|-----------2---------------|
--0-----------------------|--------0------------------|



--2--0--0-----------0--0--|--0--2--3--2--0-----------|
-----------3--0-----------|--------0--------3--0-----|
--2--0--0-----------0--0--|--0--2--2--2--0-----------|
-----------4--------------|-----------------4--------|
--0--------------2--------|--------0--------------2--|
--------------0-----------|--------------------0-----|



--0--0--0-2-2--2--0-2-0-----|--0-----------------------|
-------------------------3--|--0--3--3--2--2--0--0-----|
--0--0--0-2-2--2--0-2-0--0--|-----------------------2--|
-------------------------4--|-----4--4--2--2--0--------|
----------------------------|--------------------0-----|
----------------------------|--0-----------------------|



--------------0--0--0--2--|--2--0--0-----------0--0--|
--------------------------|-----------3--0-----------|
--2--0--------0--0--0--2--|--2--0--0-----------0--0--|
--2-----------------------|-----------4--------------|
-----------2--------------|--0--------------2--------|
--------0-----------------|--------------0-----------|



--0--2--3--2--0-----------|--0--0--0--2--2--0-2-0-----|
--------0--------3--0-----|------------------------3--|
--0--2--2--2--0-----------|--0--0--0--2--2--0-2-0-----|
-----------------4--------|------------------------4--|
--------0--------------2--|---------------------------|
--------------------0-----|---------------------------|



--0-----------------------|--------------0--0--0--2--|
-----3--3--2--2--0--0-----|--------------------------|
-----------------------2--|--2--0--------0--0--0--2--|
--------------------------|--------------------------|
--------2-----------0-----|-----------2--------------|
--0-----------------------|--------0-----------------|



--2--0--0------------0--0--|--0--2--3--2--0-----------|
-----------3----0----------|--------0--------3--0-----|
--2--0--0------------0--0--|--0--2--4--2--0-----------|
-----------4---------------|-----------------4--------|
--0---------------2--------|--------0--------------2--|
--------------0------------|--------------------0-----|



--0--0--0--2--2--0--0-----|--0-----------------------|----------------------|
-----------------------3--|-----3--3--2--2--0--0-----|----------------------|
--0--0--0--2--2--0--0-----|-----------------------2--|--2--0--------0-------|
-----------------------4--|--------4--------0--0-----|--------------4-------|
--------------0-----------|-----------------------0--|--2--------2----------|
--------------------------|--0-----------------------|--------0-------------|



-----------------------|---------------------|------------------------|
-----------------------|-----------------0h5-|--5---------------------|
--------0--------------|--0------------------|--------2---------------|
--------4--------------|--4------------------|------------------------|
-----2--------------2--|---------------------|-----4---------4-----4--|
--0--------------0-----|---------------------|--2---------------2-----|



----2------------------------|-------------------------|
------5p3p0h3----------------|----------0h3-3----------|
--2----------------0---------|--------------------2----|
-------------------4---------|-----------------4-------|
----------------2---------2--|-------2------2----------|
------------0----------------|--0----------------------|



-------------2-----------------|----------------8-----7----|
---------------5p3p0-5---------|---------------------------|
-----------2----------------0--|-------------5-----5-------|
----4----4---------------------|----4--2--0----------------|
-------2-----------------2-----|---------------------------|
---------------------0---------|---------------------------|



--5------------------7--|--5-----3--------------|-----5-----2------------|
--------5---------------|-----5--------3--------|------------------------|
-----5------------------|--5-----------4--------|-----------------2------|
------------------------|-----------------------|------------------------|
--0------------7--0-----|-----------5-----------|--------5-----4---------|
------------------------|--------3--------------|--3--------2------------|



-----------------------|-------8-----7----5-----|---------------7--5--0---|
--------0--------------|--2---------------------|--5--------------------0-|
--------2--------------|--2----5--5----------5--|------------------5------|
-----------------------|-------0----------------|-------------------------|
-----4--------------4--|------------------0-----|---------7--0------------|
--2--------------2-----|------------------------|-------------------------|



--3--------------------|--5--------------------|-----------------------|
--------3--------------|-----------------------|--------0--------------|
--------0----0---------|--4-----------2--------|--------2--------------|
-----------------------|-----------------------|-----------------------|
-----5-----------------|-----------4-----------|-----4--------------4--|
--3---------------3----|-----0--2--------------|--2p-0-----------2-----|



----------------------|---------------------|-----------------------|
--0--------------0----|------------0--------|--------0--------------|
--2--------------2----|------------2--------|--------2--------------|
----------------------|---------------------|-----------------------|
--------------4-------|---------4-----------|-----4-------4---------|
-----------2----------|------2--------------|--2---------------2----|

Tabbed by Aoakaua
Добавлено: 12.07.2012
Другие материалы по этой песне:

Страница создана 10.07.2012
http://primanota.ru/marc-ribot/postcard-from-ny-chords.htm
Привет, Гость.
Предлагаем пройти революционный курс по гитаре.
Подарок от PrimaNota.Ru, забирай!