PrimaNota.ru - самый крупный в мире бесплатный архив песенных текстов, аккордов, табулатур и нот


Marc Ribot - Merengue - таба, видео

Регистрация Запомнить меня
Войти через:  Facebook Google Twitter Vk Yandex Mail.ru

Marc Ribot - Merengue - таба, видео

Печатать
Просмотров: 126
                            Merengue - Marc Ribot

                          Composed by Frantz Casseus

Tabbed by : Aoakaua
Email : goldendawn04@hotmail.com

E||----------------------------------|----------------------------------|
B||--3---------------6----5----3-----|----3--5----6---------------10----|
G||-------------------------------5--|----------------------------------|
D||-------0--0----0--0----5----------|-----------------0--0----0--0-----|
A||----------------------------------|----------------------------------|
D||--0-------------------------------|------------0---------------------|


                                                                            
-----------------------------5--10--|----12--10----8-----------------------|
--8----11----------8----6-----------|-----------------------------------5--|
-------------9----------7----7--10--|----12--10----9-----------------5-----|
--8----12----------8----0-----------|--------------------------5h-8--------|
-------------10---------------------|-----------------0h-3h-7--------------|
------------------------0-----------|--------------------------------------|


                                                                
--5--------------------------|--------------5------------------|
--6------8------6----5----8--|----6----5----3------------------|
--7--------------------------|-------------------2--0----------|
---------8------7----5----8--|----7----5----0------------3--2--|
-----------------------------|---------------------------------|
--0--------------------------|---------------------------------|


                                                                
----8----6--5-------------------|----5--------6--------12------|
-----------------8--6----8------|------------------------------|
----7---------------------------|----5--------7--------12------|
----0--------------------8------|------------------------------|
--------------------------------|------------------------------|
--------------------------------|------------------------------|


                                                                          
----10--------------------6-------|----8---------10----------------------|
----------------------------------|--------------------10--10----10--10--|
----------------------------------|--------------------------------------|
-------------0----2--3----6----7--|----8----7----------------------------|
----------0-----------------------|----------------------------------0---|
----0-----------------------------|--------------0-----------------------|


                                                                             
---------------------10----6--------|-----------------------------------10--
---------------10----------6----10--|--10----10--10---------------10--------
----10---------------------7--------|------------------10-------------------
----0----------------------8--------|------------------0--------------------
----------9----10-------------------|------------0-----------9----10--------
------------------------------------|---------------------------------------


                                                                      
----6--------------------0-----8--|----12----------6-----------------|
----8----8--8----8--8-------------|----------------8------8----8--8--|
----------------------------------|----------12-----------9----------|
-------------------------------8--|-----------------------8----------|
----7---------------0-------------|----12----------7------7----------|
-------------------------10-------|----------------------------------|


                                                                 
-------------3----10----10----|---------------------------------|
----5-------------------10----|---------------------------------|
----3-------------------10----|---------------------------------|
------------------------------|--0----0--0----0------0----0--0--|
----0-------------------------|---------------------------------|
------------------------0-----|---------------------------------|



---------------------------------|-------------------------------5--||
----3---------------6----5----3--|-------3--5----6------------------||
---------------------------------|--5-------------------------------||
----0----0--0----0--0----5-------|--------------------0--0----0--0--||
---------------------------------|----------------------------------||
---------------------------------|---------------0------------------||

Repeat the whole thing twice then from mesure 10

************************************

| /   slide up
| \   slide down
| h   hammer-on
| p   pull-off
| ~   vibrato
| +   harmonic
| x   Mute note
| b   Bend
| pb  Pre-bend
| br  Bend release
| pbr Pre-bend release
| brb Bend release bend

************************************
Добавлено: 26.05.2012
Вам также может быть интересно:
Другие материалы по этой песне:
  • Аккорды и текст

Страница создана 26.05.2012
http://primanota.ru/marc-ribot/merengue-chords.htm
Привет, Гость.
Предлагаем пройти революционный курс по гитаре.
Подарок от PrimaNota.Ru, забирай!