PrimaNota.ru - самый крупный в мире бесплатный архив песенных текстов, аккордов, табулатур и нот


Marc Ribot - Kivah - таба, видео

Регистрация Запомнить меня
Войти через:  Facebook Google Twitter Vk Yandex Mail.ru

Marc Ribot - Kivah - таба, видео

Печатать
Просмотров: 210
                            Kivah - Marc Ribot

Composed by John Zorn

Tabbed by : Aoakaua
Email : goldendawn04@hotmail.com

E||----------------------|------------------------|-------------------------|
B||--3-------------------|--2---------------------|-------------------------|
G||----------------6--4--|-------4--3--4----3--0--|--3----0-----0-----------|
D||----------------0-----|----------0-------0-----|----------4-----4--2/-4--|
A||----------------------|--2---------------------|----------1--------------|
E||--3------6------------|------------------------|--3----------------------|



------------------------|-------------------------|
-----3--3-----3---------|-----------2--2r---0--2--|
-------------------0----|-----3--4----------------|
-----------4------------|-------------------0-----|
--2---------------------|-----------1-------------|
------------------------|--3----------------------|



----------------------------|--------------------------|--------------------|
--0-------------------------|--------------------------|-----------------3/-|
-----0----------------------|--3--0--0-----------------|--------------------|
--------4-5-4-2/-4-----4--5-|-----------4--4--2--2--0/-|--4----0----4-------|
--2-----------------2-------|-----------1--------------|--2-----------------|
----------------------------|--3-----------------------|--------------------|



-------------0--------0-|--1--0--0----------------|-------------------------|
-------2--3-----2--3----|-----------3--3--2--2--0-|--3--2--2--0--0----------|
------------------------|-------------------------|-----------------3--3--0-|
-------------------0----|-----------0--------4----|--------------------0----|
----------1-------------|--2----------------------|-----------2-------------|
--3---------------------|-------------------------|--3--2-------------------|



----------------------|-------------------------|------------------------|
-------0--------------|-------------3-----2-----|--0---------------------|
----------------------|-------0--3-----3-----3--|---------------------3--|
--4--------------4----|-------------------0-----|-------4----------4-----|
--2---------5---------|----------1--------------|--2---------5h-7--------|
----------------------|--3----------------------|------------------------|



------------------------|---------------------|-------------------------|
----------3-------2-----|--0------------------|--------------------1--2-|
----0--3-------3-----3--|---------------------|--------------2--3-------|
------------------0-----|-------4----------4--|--------3--4-------------|
----------1-------------|------------5h-7-----|-----3-------------------|
-3----------------------|--7------------------|--1----------------------|



------------------------|-------------------------|--0---------------------|
--0-----0-----0---------|-------------0-----------|-----0------------------|
--------3----------3----|-------0--------5--7--8--|--------0---------------|
--------------6----4----|-------------------------|------------4-----2-----|
-----6-----6--6---------|--3-------6--------------|------------------------|
--4---------------------|----------4--------------|--0---------------------|



-------------------------|-----------------------|--------------------------|
-------------------1--2--|--0--------------------|--------------0--1--3--4--|
-------------2--3--------|-----------------------|--------0h-1--------------|
-------3--4--------------|----------6-------4----|-----1--------------------|
-------3-----------------|-------6----------6----|--3-----------------------|
--1----------------------|--4----------4---------|--------------------------|



--0------------------|--10--------------9--7--|--9----7--6--7----6----|
-------0-------------|------------------------|-----------------------|
-------0-------------|---------------7--------|-----------------------|
-------2-------------|----------8-------------|------------------4----|
------------2--------|--10--------------------|----------5------------|
--0------------------|------------------------|--7--------------------|



--6----3--2--3----0--2--|-------------------------|----------6--10--6--9--6-|
------------------------|-------7------7-----7----|-------8-----------------|
----------3-------3-----|-------7------7-----7----|--------------------7----|
--5---------------------|----------11-----9-------|--5-------8--------------|
------------------------|-------------------------|-------------------------|
------------------------|--7----------------------|-------------------------|



--7---------------------|--------6--10----6--9----|--7----------------------|
-------7--------7-------|-----8-------------------|-------7------7----------|
-------7--------7-------|--------------------7----|-------7------7----------|
----------11------------|--5--------8-------------|----------11-------11/---|
-------------------9----|-------------------------|-------------------------|
--7---------------------|-------------------------|--7----------------------|



------------------------|-----------------------|----------------1--0-----|
--------------3---------|----------2--3---------|----------1--3--------3--|
-----0--3--5-------3----|-------4----------4----|-----3-------------------|
-----------0-------0----|-------------4---------|----------0--------------|
------------------------|--2--------------------|-------------------------|
--3---------------------|-----------------------|--3----------------------|



----------------------|-----5--3--5--6----3----|--2-------0--2--5--4--3--|
--2------3--3---------|------------------------|-------3-----------------|
----------------------|-----5--3--5--7----3----|-------------------------|
---------4-------4----|------------------------|----------4--------------|
--2-------------------|------------------------|--2----------------------|
----------------------|--3---------------------|-------------------------|



-----2----0--3-----3-----|--2-----2-----2-----2-----|--3--------------------|
----------------3-----2--|--------------------------|-----------------------|
-------------------------|-----4-----2-----0--------|-------3--5--3----5----|
-------------------------|-----------------------4--|--3--------------------|
-------------------------|--2-----------------------|----------5-------5----|
--3----------------------|--------------------------|--3--------------------|



----------2--0----2----|-------3-----2---------|-----2----5--4----5/---|
-----3-----------------|--3--------------------|-----------------------|
-----------------------|------------------0----|-----------------------|
----------4------------|----------0------------|----------4-------4----|
--2---------------2----|-----------------------|--2--------------------|
-----------------------|--3--------------------|-----------------------|



--8---6-----------------|-----------------2----0-----|--3--1-------0--------|
-------------10----8----|--------------3----------3--|-------------0----3---|
-------------------7----|-----------4----------------|------------------4---|
--7-------8-------------|------3-4-------------------|----------0-----------|
------------------------|--2-------------------------|----------------------|
------------------------|----------------------------|--3-------------------|



--------------2---------|--------------------------|-----------4--6----4/---|
--2--3-----2--3---------|--------------------1--2--|--4--6--7---------------|
--4-----4---------------|--------------2--3--------|--------------5----5/---|
--4---------------------|--------3--4--------------|------------------------|
--2----------------2----|-----3--------------------|------------------------|
------------------------|--1-----------------------|--4---------------------|



--3----1---------------|-----------------------|-------------------------|
----------4--3---------|-----0------------0----|-------------------------|
----------0-------5/---|---------------0-------|----------------0--------|
-----------------------|----------0------------|----------3/-5--6--5/-8--|
--3--------------------|----------2------------|-----3-------------------|
-----------------------|--0--------------------|--1----------------------|



--------------------------|--------------------3--4--|--5------3------------|
--------------4-----4-----|-----3--4--3--4--6--------|---------0------------|
--4--3--4--6-----6--------|--------------------------|---------0------------|
--------------------------|--------------5-----------|--2-------------------|
--------------------------|--3-----------------------|----------------------|
--4--------------------4--|--------------------------|----------------------|



-10----------9-----7-|--9----7--6--7----6--------|--7-6---3--2--6/3---0--2-|
---------------------|---------------------------|-------------------------|
----------------7----|-----------------------0---|--0--------3--------0----|
--------8------------|------------------4------4-|-------------------------|
-10------------------|----------5----------------|-------------------------|
---------------------|--7------------------------|-------------------------|



------------------------|-------------10--6--9----|--7---------------------|
-------7------7---------|-------8-----------------|-------7--------7-------|
-------7------7---------|--------------------7----|-------7--------7-------|
----------11-------9----|--5-------8--------------|----------11------------|
------------------------|-------------------------|-------------------9----|
--7---------------------|-------------------------|--7---------------------|



--------6--10----6--9----|--7-----------------------|
-----8-------------------|-----7------7-----7-------|
--------------------7----|-----7------7-----7-------|
--5--------8-------------|--------11-----9-----7----|
-------------------------|--------------------------|
-------------------------|--7-----------------------|



--------6--10--10--6--9--6--|--7---------------------|
-----8----------------------|-------7--------7-------|
----------------------7-----|-------7--------7-------|
--5------------8------------|----------11-------9----|
----------------------------|------------------------|
----------------------------|--7---------------------|



--------6--10----6--9--6--|------7-------------||
-----8--------------------|--------------------||
--------------------7-----|--------------------||
--5--------8--------------|--------------------||
--------------------------|--------------------||
--------------------------|----7---------------||

************************************

| /   slide up
| \   slide down
| h   hammer-on
| p   pull-off
| ~   vibrato
| +   harmonic
| x   Mute note
| b   Bend
| pb  Pre-bend
| br  Bend release
| pbr Pre-bend release
| brb Bend release bend

************************************
Добавлено: 12.03.2012
Другие материалы по этой песне:

Страница создана 12.03.2012
http://primanota.ru/marc-ribot/kivah-chords.htm
Привет, Гость.
Предлагаем пройти революционный курс по гитаре.
Подарок от PrimaNota.Ru, забирай!