PrimaNota.ru - самый крупный в мире бесплатный архив песенных текстов, аккордов, табулатур и нот


Marc Ribot - Empty - таба, видео

Регистрация Запомнить меня
Войти через:  Facebook Google Twitter Vk Yandex Mail.ru

Marc Ribot - Empty - таба, видео

Печатать
Просмотров: 137
                          Empty - Marc Ribot

                         (Silent Movies, 2010)


Tabbed by : Aoakaua
Email : goldendawn04@hotmail.com

                                                                      
E||-----------7---------|---------------7-------|----------9---------|
B||--7------------------|------7----------------|--------------------|
G||---------------------|---------0-------------|--------------------|
D||--------------4------|------------4-----4----|-------------7------|
A||--7--------0---------|------7--------0-------|----------9---------|
E||---------------------|-----------------------|--------------------|


                                                                     
------------9---------|--------------------|-----------7------------|
--9-------------------|--9-----------------|--7---------------------|
----------------------|--------------------|-----0---------------0--|
-----6---------7------|-----6--------------|--------4---------------|
------------9---------|--------------------|--7--------0------7-----|
--7-------------------|--7-----------------|------------------------|


                                                                    
-----7-----------0-----|----5-------0-------5--|-------------------|
-----------------------|-----------------------|-------------------|
-----------------------|-----------------------|-------------------|
--4-----4--------0-----|-------2----0----------|--2----------------|
-----0--------------8--|---------------8-------|-------------------|
-----------------------|----3---------------3--|-------------------|


                                                      
-----------7--------------|--7----------9------------|
--7--------------5--7-----|----------------------9-9-|
-----0-----------------0--|--------------------------|
--------4-----4-----------|--------4-------7--6------|
--7--------0--------7-----|-----0-------9------------|
--------------------------|----------------------7---|


                                                                             
------9--7----------------|--2-----------7----2-----|-----7-------0------5--
-------------10--9--------|-------------------------|-----------------------
--------------------------|-----0----------------0--|-----------------------
---------7----------6-----|--2h----4----------2h----|--4-----4----0---------
------9-------------------|-----------0-------------|-----0-----------------
-----------------7--------|-------------------------|--------------------3--


                                                                         
------0-------5-------|------0--------5-------|--------4--2-------------|
----------------------|------------------3----|--6----------------6-----|
----------------------|-----------------------|-------------------------|
------0-----------2---|------0-----2----------|-----6--------4-------6--|
---------8------------|---------8-------------|--4--------2-------4-----|
--------------3-------|---------------3-------|-------------------------|


                                                  
----2-------------4--2--|-------------1---------||
------------6-----------|-------3---------------||
------------------------|------------------3----||
-------4-------6--------|--4-------3------------||
----2-------4--------2--|-------1---------------||
------------------------|-----------------------||


************************************

| /   slide up
| \   slide down
| h   hammer-on
| p   pull-off
| ~   vibrato
| +   harmonic
| x   Mute note
| b   Bend
| pb  Pre-bend
| br  Bend release
| pbr Pre-bend release
| brb Bend release bend

************************************
Добавлено: 14.04.2012
Другие материалы по этой песне:

Страница создана 14.04.2012
http://primanota.ru/marc-ribot/empty-chords.htm
Привет, Гость.
Предлагаем пройти революционный курс по гитаре.
Подарок от PrimaNota.Ru, забирай!