PrimaNota.ru - самый крупный в мире бесплатный архив песенных текстов, аккордов, табулатур и нот


Marc Ribot - Delancey Waltz - таба, видео

Регистрация Запомнить меня
Войти через:  Facebook Google Twitter Vk Yandex Mail.ru

Marc Ribot - Delancey Waltz - таба, видео

Печатать
Просмотров: 85
                        Delancey Waltz - Marc Ribot

Tabbed by : Aoakaua
Email : goldendawn04@hotmail.com
                                                                          
B ||-----------------|----------------|-----------------|----------------|
F#||------------0----|----------------|-------0----0----|----------------|
D ||-------0----0----|-------2--------|-------0----0----|-------2--------|
A ||-----------------|-------4--------|-----------------|----------------|
E ||-----------------|--2-------------|-----------------|--2-------------|
B ||--0--------------|----------------|--0--------------|----------------|


                                                                       
-----------------|-----------------|-----------------|----------------|
------------0----|-----------------|-------0----0----|----------------|
-------0----0----|-------2----2----|-------0----0----|-------2--------|
-----------------|-------4----4----|-----------------|-------4--------|
-----------------|--2--------------|-----------------|--2-------------|
--0--------------|-----------------|--0--------------|----------------|


                                                                        
--0--------------|--3--------------|--7--------------|-----------------|
-------0----0----|-------0----0----|-------7----7----|-------7----7----|
-------0----0----|-------0----0----|-------7----7----|-------7----7----|
-----------------|-----------------|-------9----9----|-----------------|
-----------------|-----------------|-----------------|--9--------------|
--0--------------|--0--------------|--7--------------|-----------------|


                                                                         
------------------|-----------------|--0--------------|--3---------5----|
--------7----7----|-------7----7----|-------1----1----|-------1----1----|
--------7----7----|-------7----7----|-------2----2----|-------2----2----|
------------------|-----------------|-----------------|-----------------|
--10--------------|--9--------------|--0--------------|--0--------------|
------------------|-----------------|-----------------|-----------------|


                                                                        
--2--------------|-----------------|-----------------|-----------------|
-------3----3----|-------3----3----|-------3----3----|-------3----3----|
-------4----4----|-------4----4----|-------4----4----|-------4----4----|
-----------------|--4--------------|-----------------|--4--------------|
--2--------------|-----------------|--2--------------|-----------------|
-----------------|-----------------|-----------------|-----------------|


                                                                        
--0--------------|--3--------------|--7--------------|-----------------|
-------0----0----|-------0----0----|-------7----7----|-------7----7----|
-------0----0----|-------0----0----|------------7----|-------7----7----|
-----------------|-----------------|-----------------|--7--------------|
-----------------|-----------------|-----------------|-----------------|
--0--------------|--0--------------|--7--------------|-----------------|


                                                                         
------------------|-----------------|--0--------------|--5--------------|
--------7----7----|-------7----7----|-------1----1----|-----------------|
--------7----7----|-------7----7----|-------2----2----|-------5----5----|
------------------|-----------------|-----------------|-------7----7----|
--10--------------|--9--------------|--0--------------|--0--------------|
------------------|-----------------|-----------------|-----------------|


                                                                            
--2-------2-----2--|-----2-----2-------|--0--------------|--3--------------|
-------------------|-------------------|-------1----1----|-------1----1----|
-------4-----5-----|--4-----2----------|-------2----2----|-------2----2----|
-------------------|--------------5/---|-----------------|-----------------|
--2----------------|-------------------|--0--------------|--0--------------|
-------------------|-------------------|-----------------|-----------------|


                                                                         
--7--------------|------------------|--3--------------|-------3---------|
-----------------|--10--------------|-------0----0----|------------3----|
-------8----8----|--------8----8----|-------0----0----|-----------------|
-------9----9----|--------9----9----|-----------------|-----------------|
-----------------|--9---------------|-----------------|--2--------------|
--7--------------|------------------|--0--------------|-----------------|


                                                                        
--8--------------|--7--------------|--5--------------|-----------------|
-------7----7----|-------7----7----|-------5----5----|-------5----5----|
-------7----7----|-------7----7----|-------5----5----|-------5----5----|
--0--------------|--0--------------|-----------------|--5--------------|
-----------------|-----------------|--3--------------|-----------------|
-----------------|-----------------|-----------------|-----------------|


                                                                        
-----------------|-----------------|-----------------|-----------------|
-------5----5----|-------5----5----|-------3----3----|-------3---------|
-------5----5----|-------5----5----|-------2----2----|-------2---------|
--4--------------|--2--------------|--0--------------|--4---------2----|
-----------------|-----------------|-----------------|-----------------|
-----------------|-----------------|-----------------|-----------------|


                                                                     
---------------|-----------------|-----------------|----------------|
---------------|-----------------|-------8----8----|----------------|
---------------|-----------------|-------9----9----|-------7--------|
--0------------|-----------------|-------9----9----|-------9--------|
---------------|--2----5----6----|-----------------|----------------|
---------------|-----------------|--0--------------|--7-------------|


                                                                          
-----------------|-----------------|-----------------|-------------------|
-------8----8----|-----------------|-------8----8----|-------------------|
-------9----9----|-------7----7----|-------9----9----|-------------------|
-------9----9----|-------9----9----|-------9----9----|-------9-----9-----|
-----------------|-------9----9----|-----------------|-------10----10----|
--0--------------|--7--------------|--0--------------|--7----------------|


                                                                            
-------------------|-------------------|--0--------------|--3---------5----|
-------------------|-------------------|-------0----0----|-------0----0----|
-------------------|-------------------|-------0----0----|-------0----0----|
-------9-----9-----|-------9-----9-----|-----------------|-----------------|
-------10----10----|-------10----10----|-----------------|-----------------|
--0----------------|--7----------------|--0--------------|--0--------------|


                                                                         
--7--------------|-----------------|------------------|-----------------|
-------7----7----|-------7----7----|--------7----7----|-------7----7----|
-------7----7----|-------7----7----|--------7----7----|-------7----7----|
-------9---------|--7--------------|------------------|-----------------|
-----------------|-----------------|--10--------------|--9--------------|
--7--------------|-----------------|------------------|-----------------|


                                                                        
--0--------------|--3---------5----|--2--------------|-----------------|
-------1----1----|-------1----1----|-------3----3----|-------3---------|
-------2----2----|-------2----2----|-------4----4----|-------4---------|
-----------------|-----------------|-----------------|--4----2----0----|
--0--------------|--0--------------|--2--------------|-----------------|
-----------------|-----------------|-----------------|-----------------|


                                                                        
-----------------|--2---------3----|--5--------------|-----------------|
--3--------------|-----------------|-------5----5----|-------5----5----|
--2---------2----|--2----2----2----|-------5----5----|-------5----5----|
--4----4---------|--4----4----4----|-----------------|--5--------------|
--5--------------|--5--------------|--3--------------|-----------------|
-----------------|-----------------|-----------------|-----------------|


                                                                            
--5--------------|--3--------------|--2-------2-----2--|-----2-----2-------|
-------5----5----|-------5----5----|-------------------|-------------------|
-------5----5----|-------5----5----|-------4-----5-----|--4-----2----------|
-----------------|-----------------|-------------------|--------------5/---|
--3--------------|--3--------------|--2----------------|-------------------|
-----------------|-----------------|-------------------|-------------------|


                                                                        
--0--------------|--3-------------|--7--------------|------------------|
-------1----1----|-------1--------|-----------------|--10--------------|
-------2----2----|-------2--------|-------8----8----|--------8----8----|
-----------------|----------------|-------9----9----|--------9----9----|
--0--------------|--0-------------|-----------------|--9---------------|
-----------------|----------------|--7--------------|------------------|


                                                                        
-----------------|-----------------|--8--------------|--7--------------|
--8--------------|-------8---------|-------7----7----|--7----7----7----|
-------9----9----|------------7----|-------7----7----|--7----7----7----|
-------9----9----|-----------------|--0--------------|--0--------------|
-----------------|-----------------|-----------------|-----------------|
--0--------------|--7--------------|-----------------|-----------------|


                                                                        
--5--------------|-----------------|-----------------|-----------------|
-------5----5----|-------5----5----|-------5----5----|-------5----5----|
-------5----5----|-------5----5----|-------5----5----|-------5----5----|
-----------------|--5--------------|--4--------------|--2--------------|
--3--------------|-----------------|-----------------|-----------------|
-----------------|-----------------|-----------------|-----------------|


                                                                         
-----------------|-----------------|-----------------|------------------|
-------3----3----|-------3---------|-------3----3----|--------3----3----|
-------2----2----|-------2---------|-------2----2----|--------2----2----|
--0--------------|--4---------2----|--0--------------|--2--4------------|
-----------------|-----------------|-----------------|------------------|
-----------------|-----------------|-----------------|------------------|


                                                                        
-----------------|--2---------3----|--5--------------|-----------------|
--3--------------|-----------------|-------5----5----|-------5----5----|
--2----2----2----|--2----2---------|-------5----5----|-------5----5----|
--4----4----4----|--4----4---------|-----------------|--5--------------|
--5--------------|--5--------------|--3--------------|-----------------|
-----------------|-----------------|-----------------|-----------------|


                                                                        
--5--------------|--3--------------|--2--------------|-----------------|
-------5----5----|-------5----5----|-----------3-----|--3--------------|
-------5----5----|-------5----5----|-----------4--5--|--4----2----0----|
-----------------|-----------------|-----------------|-----------------|
--3--------------|--3--------------|--2--------------|-----------------|
-----------------|-----------------|-----------------|-----------------|


                                                                        
-------3---------|--3---------2----|-----------------|-----------------|
-------4---------|--4---------3----|-------0----0----|-------0----0----|
------------5----|-------4---------|-------0----0----|-------0----0----|
-----------------|-----------------|-----------------|-----------------|
--2--------------|-----------------|-----------------|--2--------------|
-----------------|-----------------|--0--------------|-----------------|


                                                                        
-----------------|-----------------|-------0----0----|-------0----0----|
-------0----0----|-------0----0----|-------0----0----|-------0----0----|
-------0----0----|-------0----0----|-------0----0----|-------0----0----|
-----------------|-----------------|-----------------|-----------------|
-----------------|--2--------------|-----------------|--2--------------|
--0--------------|-----------------|--0--------------|-----------------|


                                                                        
-------0----0----|-------0----0----|-----------------|--2--------------|
-------0----0----|-------0----0----|--3--------------|-----------------|
-------0----0----|-------0----0----|-------2----2----|-------2----2----|
-----------------|-----------------|-------4----4----|-------4----4----|
-----------------|--2--------------|--5--------------|--5--------------|
--0--------------|-----------------|-----------------|-----------------|


                                                                        
--5--------------|-----------------|-----------------|-----------------|
-------5----5----|-------5----5----|-------5----5----|-------5----5----|
-------5----5----|-------5----5----|-------5----5----|-------5----5----|
-----------------|--5--------------|-----------------|--5--------------|
--3--------------|-----------------|--3--------------|-----------------|
-----------------|-----------------|-----------------|-----------------|


                                                                   
---------------|----------------|-------0--------|----------------|
---------------|----------------|-------0--------|-------3--------|
---------------|----------------|-------0--------|-------4--------|
---------------|----------------|----------------|----------------|
--2------------|------5----6----|----------------|--2-------------|
---------------|----------------|--0-------------|----------------|


                                                                       
-------0----0----|----------------|-------0----0----|-----------------|
-------0----0----|-------3--------|-------0----0----|-------3---------|
-------0----0----|-------4--------|-------0----0----|-------4----4----|
-----------------|----------------|-----------------|-----------------|
-----------------|--2-------------|-----------------|--2--------------|
--0--------------|----------------|--0--------------|-----------------|


                                
--0------------||
--0------------||
--0------------||
---------------||
--2------------||
--0------------||

************************************

| /   slide up
| \   slide down
| h   hammer-on
| p   pull-off
| ~   vibrato
| +   harmonic
| x   Mute note
| b   Bend
| pb  Pre-bend
| br  Bend release
| pbr Pre-bend release
| brb Bend release bend

************************************
Добавлено: 29.06.2012
Другие материалы по этой песне:

Страница создана 20.03.2012
http://primanota.ru/marc-ribot/delancey-waltz-chords.htm
Привет, Гость.
Предлагаем пройти революционный курс по гитаре.
Подарок от PrimaNota.Ru, забирай!