PrimaNota.ru - самый крупный в мире бесплатный архив песенных текстов, аккордов, табулатур и нот


Marc Cohn - Perfect Love - текст песни, таба, видео

Регистрация Запомнить меня
Войти через:  Facebook Google Twitter Vk Yandex Mail.ru

Marc Cohn - Perfect Love - текст песни, таба, видео

Печатать
Просмотров: 123
Perfect Love by Marc Cohn
Transcribed by Dave Hunter, dajh196@soton.ac.uk

A beautiful song, and not particularly tricky.  I have only written out the main guitar part, I'll try and 
out the rest another time, but you should be able to work most of it out yourself, it's based around the 
which makes it easier.

h = hammer on
p = pull off
X = slap

Capo 5th Fret

Intro:
     F                      G
E X-----------X---------------------X------------|
B X-----------X---------------------X------------|
G X---------0-X---------2p0-0---0-0-X-------0----|
D X-------3---X-------3-----0---0-0-X-------0----|      X2
A X-----3-----X-----3---------------X------------|
E X-0h1-------X-0h1---------3-3-----X-0-0-3------|

Verse:

      F      F    G
E X---------------------|
B X---------------------|
G X---------------0-----|
D X-----3------3--0-----|
A X-----3------3--------|
E X-0h1-1--0h1----3-----|

Down by the boathouse at Shaker lake,
When there wasn't nothin' but love to make,


E X------------------------X---------------------------|
A X------------------------X---------------------------|
G X------------------------X----0-----0----------------|
D X-----3-----------3------X----0-----0----------------|
A X-----3-----------3------X---------------------------|
E X-0h1-1-----------1------X----3-----3----------------|

There were two young lovers, wishing on the stars above

           F             G
E ---------------X---------|
B ---------1---1-X-----1-0-|
G ---------2---2-X-----2-0-|
D ---------3---3-X---3-----|
A ---------3-3---X-3-------|
E ---------------X-------3-|

      F      F    G
E X---------------------|
B X---------------------|
G X---------------0-----|
D X-----3------3--0-----|
A X-----3------3--------|
E X-0h1-1--0h1----3-----|

Well they carved their initials in an old birch tree,
with a heart and an arrow and a sixty three.

     F                      G
E -----------------------------|
B -----------------------------|
G --------------------------0--|
D -----3--------------------0--|
A -----3-----------------------|
E -0h1-1--------------------3--|

You had to blind not to see, it was a,

Chorus:

     F                      G
E X-----------X---------------------X------------|
B X-----------X---------------------X------------|
G X---------0-X---------2p0-0---0-0-X-------0----|
D X-------3---X-------3-----0---0-0-X-------0----|
A X-----3-----X-----3---------------X------------|
E X-0h1-------X-0h1---------3-3-----X-0-0-3------|

    Perfect love,
    it was a perfect love  ooh yeah yeah.

Verse:

Well they worked on summer together at the '64 world's fair,
they met Robert Kennedy there,
well it was, right before the fall.

And they saved up a little bit of money for his career,
and they talked about the future,
underneath the giant sphere,
and all around them the little voices were singing,
"It's a small world after all",
yes it is, small world after all, and it was,

perfect love
it was a perfect love
(James Taylor - under the moon and the stars above,
 it was a perfect love)
             Am            F         Am       F
E ---------------------------------------------------|
B ------------1-----------------------1--------------|
G ------------2-----------------------2--------------|
D ------------2------------3----------2-------3------|
A ----------0--------------3--------0---------3------|
E -------------------------1------------------1------|

and they were dizzy from dancing on rockaway beach,
           G
E -------------------|
B -----------0---0---|
G -----------0---0---|
D -----------0---0---|
A -------------------|
E ---------3---------|

they came to rockaway,

             Am            F         Am       F
E ---------------------------------------------------|
B ------------1-----------------------1--------------|
G ------------2-----------------------2--------------|
D ------------2------------3----------2-------3------|
A ----------0--------------3--------0---------3------|
E -------------------------1------------------1------|

and everything they dreamed of was still within reach,
           G
E -------------------|
B -----------0---0---|
G -----------0---0---|
D -----------0---0---|
A -------------------|
E ---------3---------|

   dreaming,

dreaming as the years roll by.
Like they always do,
well they had their share of hard times too.
But whatever they were, they never let it get them down.

They just go walking down the country lane,
see the leaves achanging in the misty rain,

          Am       F     C          G
E -------------------------------------------------|
B --------1--------1-----1----------0--------------|
G --------2--------2-----0----------0--------------|
D --------2--------3-----2----------0--------------|
A --------0--------------3-------------------------|
E -----------------1----------------3--------------|

    and only one thing remains the same, wooah

Chorus:

      F                     G
E X-----------X---------------------X------------|
B X-----------X---------------------X------------|
G X---------0-X---------2p0-0---0-0-X-------0----|     Repeat to fade.
D X-------3---X-------3-----0---0-0-X-------0----|
A X-----3-----X-----3---------------X------------|
E X-0h1-------X-0h1---------3-3-----X-0-0-3------|

       Ooh yeah yeah,
       just a perfect love
       ooh yeah yeah
Добавлено: 21.07.2012
Другие материалы по этой песне:
  • Аккорды и текст

Страница создана 31.03.2012
http://primanota.ru/marc-cohn/perfect-love-chords.htm
Привет, Гость.
Предлагаем пройти революционный курс по гитаре.
Подарок от PrimaNota.Ru, забирай!