PrimaNota.ru - самый крупный в мире бесплатный архив песенных текстов, аккордов, табулатур и нот


Marbert Rocel - Tttictictac - таба, видео

Регистрация Запомнить меня
Войти через:  Facebook Google Twitter Vk Yandex Mail.ru

Marbert Rocel - Tttictictac - таба, видео

Печатать
Просмотров: 152
Author/Artist: Marbert Rocel (www.marbertrocel.com)
Title: Tttictictac
Album: Speed Emotions
Transcribed by: Michiel Rombouts (michielrombouts@gmail.com)


Guitar#1 plays contineously, guitar#2 plays in the intro and in between
the parts with lyrics. For the chorus, play the same as the verses. I didn't know how to 
the 'darker' part in the middle of the song, so I called it 'bridge-2'. I couldn't find 
lyrics anywhere, so I tried to figure them out myself. Any suggestions are more then welcome!


Intro/Verses
 Guitar#1:
    Dsus2     Csus2     Bbsus2    Csus2
 -||---------|---------|---------|----------|
 -||-----5---|-----3---|---------|----------|
 -||-------7-|-------5-|-----3---|-----5----|
 -||---7-----|---5-----|---3---3-|---5------|
 -||-5-------|-3-------|-1-------|-3--------|
 -||---------|---------|---------|----------|

 Guitar#2 (based on pentatonic scale in E)
 -||-----5-----|-----5-----|-----5-----|-----8-7----|
 -||-8-8---5---|-8-8---5---|-8-8---5---|-8-8-----8--|
 -||---------7-|---------7-|---------7-|------------|
 -||-----------|-----------|-----------|------------|
 -||-----------|-----------|-----------|------------|
 -||-----------|-----------|-----------|------------|


Intro/Bridge
 Guitar#1:
    Ebsus2          Fsus2           Ebsus2          Fsus2
 -||---------------|---------------|---------------|--------------------|
 -||---------------|---------------|---------------|---------8----------|
 -||-----7-----7---|-----9-----9---|-----7-----7---|------10---10-------|
 -||---5-----5---5-|---7-----7---7-|---5-----5---5-|---10---------10----|
 -||-6-----6-------|-8-----8-------|-6-----6-------|-8---------------8--|
 -||---------------|---------------|---------------|--------------------|

 Guitar#2
 -||----------|----------|----------|-----------|
 -||--4-4-4-4-|--5-5-5-5-|--6-6-6-6-|---8--8----|
 -||-7-7-7-7--|-7-7-7-7--|-8-8-8-8--|-10-10-10--|
 -||----------|----------|----------|-----------|
 -||----------|----------|----------|-----------|
 -||----------|----------|----------|-----------|


Bridge-2
    Bsus2         Csus2         Bbsus2  Csus2
 -||-------------|-------------|--------------|-x------------|
 -||-------------|-------------|--------------|-x------------|
 -||-----0-------|-----0-------|-----0------0-|-x------------|
 -||---0---------|---0---------|---0------0---|-x------------|
 -||-2-----------|-3-----------|-1------3-----|-x------------|
 -||-------------|-------------|--------------|-x------------|

 following bass-line goes something like this:
 -||----------|-----------|----------|------------|
 -||----------|-----------|----------|------------|
 -||----------|-----------|----------|------------|
 -||----------|-----------|---7------|------------|
 -||-5-7-5----|-----------|-5---5----|------------|
 -||----------|-6-6-8-5-8-|----------|-6-6-8-5-8--|


Lyrics:
 Intro

 Verse 1
  On the ?? days, when everything's alright.
  On the starry? days, when you never saw light.
  Maybe you never feel alone.

 Bridge
  Maybe you think, you have to be,
  like him, like her, but you and me

 Chorus
  We could be like this, we can feel like that
  We can be merry?, we could feel so sad
  Ttt-tic-tic-Tac, step by step.

 Intro
 Chorus

 Bridge-2
  Cloak on your love ???
  Be unforgiving.
  Time after time

 Verse 2
  On the ?? days, when everything's alright.
  On the starry? days, when you never saw light.
  Maybe you often feel alone.

 Bridge
 Chorus x2

 Outro
  No color?, we never had (x3)
Добавлено: 02.03.2012
Другие материалы по этой песне:
  • Аккорды и текст

Страница создана 02.03.2012
http://primanota.ru/marbert-rocel/tttictictac-chords.htm
Привет, Гость.
Предлагаем пройти революционный курс по гитаре.
Подарок от PrimaNota.Ru, забирай!