PrimaNota.ru - самый крупный в мире бесплатный архив песенных текстов, аккордов, табулатур и нот


Maps And Atlases - Old And Gray - бас-таба, видео

Регистрация Запомнить меня
Войти через:  Facebook Google Twitter Vk Yandex Mail.ru

Maps And Atlases - Old And Gray - бас-таба, видео

Печатать
Просмотров: 116
Уроки эстрадного вокала в Санкт-Петербурге
-----------------------------------------------------------------------------
                             Old and Gray - Maps and Atlases
-----------------------------------------------------------------------------
Tabbed by: coheedfan28
E-mail: mdecker1932@holyfamily.edu 

Tuning: STANDARD

0:00-1:18
REST

1:19-1:38

G------------------------|
D-15-13------------------|
A------16p15-13-11-13h15-|
E------------------------|

1:39-1:50
REST

1:51-2:10

G---------------------|
D---------------------|
A-1-1--1-3--1-3-1---1-|
E--1----1----1---4-1--|

2:11-2:18

G------------------------|
D-15-13------------------|
A------16p15-13-11-13h15-|
E------------------------|

2:19-2:37
REST

2:38-3:20

G----------------------|
D----------------------|
A-1-1--1-3-1---3-1---1-|
E--1----1---4-1---4-1--|

3:21-3:24 
REST

3:25-3:37

G------------------------|
D-15-13------------------|
A------16p15-13-11-13h15-|
E------------------------|

3:39-3:52

G--------------------------------|
D-3------------------------------|
A--1-3---1--1-1--1-3-1---3-1---1-|
E-----4-1----1----1---4-1---4-1--|

3:53-4:16

G----------------------|
D----------------------|
A-1-1--1-3-1---3-1---1-|
E--1----1---4-1---4-1--|

4:17-4:49
REST

4:50-END
Watch the timing

G-------|
D-------|
A-6(x8)-|
E-------|


| /  slide up
| \  slide down
| h  hammer-on
| p  pull-off
| ~  vibrato
| +  harmonic
| x  Mute note
=============================================================================
Добавлено: 31.05.2016
Другие материалы по этой песне:
  • Аккорды и текст

Страница создана 31.05.2016
http://primanota.ru/maps-and-atlases/old-and-gray-chords.htm
Привет, Гость.
Предлагаем пройти революционный курс по гитаре.
Подарок от PrimaNota.Ru, забирай!