PrimaNota.ru - самый крупный в мире бесплатный архив песенных текстов, аккордов, табулатур и нот


Maps And Atlases - If This Is - таба, видео

Регистрация Запомнить меня
Войти через:  Facebook Google Twitter Vk Yandex Mail.ru

Maps And Atlases - If This Is - таба, видео

Печатать
Просмотров: 77
Уроки эстрадного вокала в Санкт-Петербурге
e---------------------------------------------------------------------------|
B---------------------------------------------------------------------------|
G---6-5-4-6-5-4-6-----------------------------------------------------------|
D-------------------2-2-2-2-------------------------------------------------|
A-----------------2---------------------------------------------------------|
E---------------------------------------------------------------------------|

e------------------------------------------------------------------------|
B------------------------------------------------------------------------|
G---6-5-4-6-5-4-6------------------------------1-------------------------| (x2)
D-------------------2-2-2-2-2-2-2-2--2-2-2-2---1-------------------------|
A-----------------2-----------------2----------2-------------------------|
E----------------------------------------------0-------------------------|

e-----------------------------------------------------------------------------|
B-------------------------------------0---------------------------------------|
G-------------------------------------2---------2/----------------------------|
D-------------------------------------1---------1/----------------------------|
A---------------------7--6--4--2--0---2---------2/----------------------------|
E---4-4-4-3--2--4--5------------------0---------------------------------------|

e---------------------------------------------------------------------------|
B-------------------------0-------------------------------------------------|
G-------------------------2-------------------------------------------------|
D-------------------------1-------------------------------------------------|
A---------7--6--4--2--0---2-------------------------------------------------|
E--2-4-5------------------0-------------------------------------------------|

e---------------------------------------------------------------------------------|
B--------------------10----------------------------------------------------10-----|
G---9-------9------------9---------9-----------------9----------9-----------------|
D-----11p9---11p9---------11p9------11p9----11p9------11p9-------11p9-------------|
A-----------------11-------------11-----11------11------------11------11----------|
E-9-------------------------------------------------------------------------------|

e---------------------------------------------------------------------------|
B---------------------------------------------------------------------------|
G---6-5-4-6-5-4-6-----------------------------------------------------------|
D-------------------2-2-2-2-------------------------------------------------|
A-----------------2---------------------------------------------------------|
E---------------------------------------------------------------------------|

e------------------------------------------------------------------------|
B------------------------------------------------------------------------|
G---6-5-4-6-5-4-6------------------------------1-------------------------| (x2)
D-------------------2-2-2-2-2-2-2-2--2-2-2-2---1-------------------------|
A-----------------2-----------------2----------2-------------------------|
E----------------------------------------------0-------------------------|

e-----------------------------------------------------------------------------|
B-------------------------------------0---------------------------------------|
G-------------------------------------2---------2/----------------------------|
D-------------------------------------1---------1/----------------------------|
A---------------------7--6--4--2--0---2---------2/----------------------------|
E---4-4-4-3--2--4--5------------------0---------------------------------------|

e---------------------------------------------------------------------------|
B-------------------------0-------------------------------------------------|
G-------------------------2-------------------------------------------------|
D-------------------------1-------------------------------------------------|
A---------7--6--4--2--0---2-------------------------------------------------|
E--2-4-5------------------0-------------------------------------------------|

e------------------------------------0----------------------------------------|
B------------------------------------0----------------------------------------|
G-----------1---------------------1--1----6-----------------------------------|
D-----2--4----2--------2---2---2----------6-----------------------------------|
A--4------------4-2----2---2---2----------4-----------------------------------|
E-------------------4--0---0---0--------4-------------------------------------|

e---------------------2---2---2---2---2------------------------------|
B---------------------2---2---2---2---2------------------------------|
G-----------1---------2---2---2---2---2------------------------------|
D-----2--4------------4---4---4---4---4------------------------------|
A--4-------------4----4---4---4---4---4------------------------------|
E---------------------2---2---2---2---2------------------------------|

e------------------------------2---2---2---2---0---0---0---0--------------|
B------------------------------2---2---2---2---2---2---2---2--------------|
G------------1-2-1-------------2---2---2---2---2---2---2---2--------------|
D------2--4-------2------------4---4---4---4---2---2---2---2--------------|
A---4---------------4-2-0------4---4---4---4---0---0---0---0--------------|
E-------------------------4--2-2---2---2---2---0---0---0---0--------------|

e-----------------------------------------------------------------------|
B-----------------------------------------------------------------------|
G--------------------------------1--------------------------------------|
D----2-----2-----2-----2------2--2--------------------------------------|
A--2---2--2--2--2--2--2--2----0--2--------------------------------------|
E-------2-----2-----2-----2------0--------------------------------------|

e-----------------------0---0-0---0-0-----------------------------------|
B-----------------------0---0-0---0-0---5-------------------------------|
G----------1------------1---1-1---1-1---6-------------------------------|
D----2--4----2----------2---2-2---2-2---6-------------------------------|
A--4-----------4/0------2---2-2---2-2---4-------------------------------|
E------------------4/0--0---0-0---0-0-----------------------------------|

e---------------------2---2---2---2---2------------------------------|
B---------------------2---2---2---2---2------------------------------|
G-----------1---------2---2---2---2---2------------------------------|
D-----2--4------------4---4---4---4---4------------------------------|
A--4-------------4----4---4---4---4---4------------------------------|
E---------------------2---2---2---2---2------------------------------|

e-----------------------------2-------------------------0---0-----------|
B-----------------------------2-------------------------2---2-----------|
G-----------1-2-1-------------2-------------------------2---2-----------|
D-----2--4--------2-----------4------------------1--2---2---2---2-0-----|
A--4----------------4-2-0-----4---------0--2--4---------0---0---0-0-----|
E-------------------------4---2---2--4------------------0---0-----------|

e-------------------------|
B-------------------------|
G-------------------------|
D----2--------------------| (x8)
A--2---2------------------|
E--------2----------------|

End on

e----0---------------------------------------|
B----0---------------------------------------|
G----1---------------------------------------|
D----2---------------------------------------|
A--------------------------------------------|
E--------------------------------------------|
Добавлено: 27.09.2013
Другие материалы по этой песне:
  • Аккорды и текст

Страница создана 27.09.2013
http://primanota.ru/maps-and-atlases/if-this-is-chords.htm
Привет, Гость.
Предлагаем пройти революционный курс по гитаре.
Подарок от PrimaNota.Ru, забирай!