PrimaNota.ru - самый крупный в мире бесплатный архив песенных текстов, аккордов, табулатур и нот


Maple Cap - Every Day Feels The Same - таба, видео

Регистрация Запомнить меня
Войти через:  Facebook Google Twitter Vk Yandex Mail.ru

Maple Cap - Every Day Feels The Same - таба, видео

Печатать
Просмотров: 60
-------------------------------------------------------------------------------
                 Every day Feels the Same - Intro - Maple Cap
-------------------------------------------------------------------------------
Tabbed by: Mike Mazzu
E-mail:

Tuning: Standard 

e|---------------------------------------------------------------------------|
B|---------------------------------------------------------------------------|
G|------0--------------------0----------------0------------------0-----------|
D|---2---2----------------2---2-------------4---4----------2--2h4-4p0--------|
A|--------------------------------------3/5--5---5-------0--0--------0-------|
E|-0--0--------2---3-------3---3---------------------------------------------|



************************************

| /   slide up
| \   slide down
| h   hammer-on
| p   pull-off
| ~   vibrato
| +   harmonic
| x   Mute note
| b   Bend
| pb  Pre-bend
| br  Bend release
| pbr Pre-bend release
| brb Bend release bend

************************************
Добавлено: 05.11.2015
Другие материалы по этой песне:
  • Аккорды и текст

Страница создана 05.11.2015
http://primanota.ru/maple-cap/every-day-feels-same-chords.htm
Привет, Гость.
Предлагаем пройти революционный курс по гитаре.
Подарок от PrimaNota.Ru, забирай!