PrimaNota.ru - самый крупный в мире бесплатный архив песенных текстов, аккордов, табулатур и нот


Maon Kurosaki - Fuss Fuzz - таба, видео

Регистрация Запомнить меня
Войти через:  Facebook Google Twitter Vk Yandex Mail.ru

Maon Kurosaki - Fuss Fuzz - таба, видео

Печатать
Просмотров: 106
Song: Fuss Fuzz
Artist: Maon Kurosaki
Album: H.O.T.D. ('High School Of The Dead' ending themes)
Tuning: Drop C#

Tabbed by: Jeff Halterman
E-mail: haltrman93@yahoo.com

I never thought my first tab would be off an anime soundtrack, but this outro track for 'High School Of The
Dead' was worth the attempt. Can't understand a lick of what she's saying, but the song rocks! :D

Unfortunately, I'm still very new at transcribing by ear and this song certainly has its challenges isolating
the guitar(s), so I'm looking to make this a "community" tab. Any and all contributors will have their names
written just below this. Thanks in advance and enjoy!

Contributors
************ 



Legend
******
|----| = palm mute
X = rake (percussive sound, mute strings)
* = unknown chord/possible error

Intro (played with a staccato/pop)
                     Palm Mute                        Lighter Palm Mute    Lighter
   |------------------------------------------|      |-----------------|   |------|
D#|----------------------------------------------------------------------------------------------|
A#|----------------------------------------------------------------------------------------------|
F#|7-7-7----9--9--9--9---10-10-10----9--9--9--9------7-7-7----9--9--9--9---10-10-10----9--9--9--9|
C#|8-8-8---10-10-10-10---12-12-12---10-10-10-10------8-8-8---10-10-10-10---12-12-12---10-10-10-10|
G#|----------------------------------------------------------------------------------------------|
C#|----------------------------------------------------------------------------------------------|

Pre-verse (played more loosely than the Intro)
D#|-------------------------------------------------------------------------------------------------|
A#|-----------------------------------------------------------------------------------X-8---10-10-10|
F#|7-7-7----9--9--9--9---X-10-10-10----9--9--9--9--9--9--9------7-7-7----9--9--9--9---X-8---10-10-10|
C#|8-8-8---10-10-10-10---X-12-12-12---10-10-10-10-10-10-10------8-8-8---10-10-10-10---X-8---10-10-10|
G#|-------------------------------------------------------------------------------------6----8--8--8|
C#|-------------------------------------------------------------------------------------------------|
                                                                                        ^ strumming pattern?

                                                                                   |-------------------|
                                  OR                                               |--X-8---10-10-11-10|
                         (alternate turnaround)                                    |--X-8---10-10-10-10|
                                                                                   |--X-8---10-10-10-10|
                                                                                   |----6----8--8--8--8|
                                                                                   |-------------------|

Verse (played like the Intro with that staccato/pop)
D#|-------------------------------------------------------------------------------------------|
A#|-----------------------------------------------------------------------------------X-8---10|
F#|7-7-7----9--9--9--9---X-10-10-10----9--9--9--9--9--9--9------7-7-7----9--9--9--9---X-8---10|
C#|8-8-8---10-10-10-10---X-12-12-12---10-10-10-10-10-10-10------8-8-8---10-10-10-10---X-8---10|
G#|-------------------------------------------------------------------------------------6----8|
C#|-------------------------------------------------------------------------------------------|

Pre-chorus (* = unsure of chord derivations [if any] and strumming pattern)
   *    *   *    *      *    *                               *    *   *    *   *   *
D#|---------------------------------------------------------------------------------------------------5|
A#|12---8---10---3------12---8----10-10-10--10-10-11-10------12---8---10---3--------------7-7-7-7-7-8-7|
F#|12---8---10---3------12---8----10-10-10--10-10-10-10------12---8---10---3--------------7-7-7-7-7-7-7|
C#|12---8---10---3------12---8----10-10-10--10-10-10-10------12---8---10---3---6---3------7-7-7-7-7-7-7|
G#|10---6----8---1------10---6-----8--8--8---8--8--8--8------10---6----8---1---6---3------5-5-5-5-5-5-5|
C#|----------------------------------------------------------------------------6---3-------------------|

Chorus
     |-|  |----------|      |-|                              |-|        |-|
D#|---------------------------------------------------------------------------------------------------|
A#|---------------------6-6---------------------------------------------------------------------------|
F#|---------------------5-5-----------------------3/5\3--3--------------------------------------------|
C#|1-----1--------------3-3-----------------------3/5\3--3--------1h3-1--------------5---5------------|
G#|1-----1----------------------5-3-5-3h5p3p0----------------------------------------5---5------------|
C#|1-1-1-1-1-1-1-1-1-1------0-0---------------5-5------------1-1---------1-0--2-4-7--5---5---5-5-7-9-5|

     |-|  |----------|      |-|                                   |-|  |-|
D#|---------------------------------------------------------------------------------------------------|
A#|---------------------6-6---------------------------------------------------------------------------|
F#|---------------------5-5-----------------------3/5\3--3------5-----5------8-7-5-3------------------|
C#|1-----1--------------3-3-----------------------3/5\3--3------5-----5---------------3------4---6---8|
G#|1-----1----------------------5-3-5-3h5p3p0-------------------3-3-3-3-3-3--6-5-3-1--3------4---6---8|
C#|1-1-1-1-1-1-1-1-1-1------0-0---------------5-5-------------------------------------3------4---6---8|
Добавлено: 04.08.2015
Другие материалы по этой песне:
  • Аккорды и текст

Страница создана 04.08.2015
http://primanota.ru/maon-kurosaki/fuss-fuzz-chords.htm
Привет, Гость.
Предлагаем пройти революционный курс по гитаре.
Подарок от PrimaNota.Ru, забирай!