PrimaNota.ru - самый крупный в мире бесплатный архив песенных текстов, аккордов, табулатур и нот


Maoli - Whisper - бас-таба, видео

Регистрация Запомнить меня
Войти через:  Facebook Google Twitter Vk Yandex Mail.ru

Maoli - Whisper - бас-таба, видео

Печатать
Просмотров: 92
Уроки эстрадного вокала в Санкт-Петербурге
-------------------------------------------------------------------------------
                            Whisper - Maoli
-------------------------------------------------------------------------------

Tabbed By : Ryan Riley
e-mail: block2150@gmail.com
YouTube: http://www.youtube.com/watch?v=7ZMEWSvWtuE

Tuning: Standard

Intro (Play once)

G|---------------------------------------------------------------------------|
D|---------------------------------------------------------------------------|
A|-7-5-------------------------7---------------------------------------------|
E|-----7-5-1---3---5---3---5-------------------------------------------------|

Main Riff

G|---------------------------------------------------------------------------|
D|----555555---------777777--------------------------------------------------|
A|--3--------------5---------------------------------------------------------|
E|----------5--55-----------3-33---------------------------------------------|


Bridge

G|---------------------------------------------------------------------------|
D|--------------777777------777777---(wait to go back to main riff)----------|
A|--7--5-----5-----------5---------------------------------------------------|
E|---------------------------------------------------------------------------|


NOTES: The main riff is played most of the song. The bridge comes in twice.
Добавлено: 01.09.2013
Другие материалы по этой песне:
  • Аккорды и текст

Страница создана 01.09.2013
http://primanota.ru/maoli/whisper-chords.htm
Привет, Гость.
Предлагаем пройти революционный курс по гитаре.
Подарок от PrimaNota.Ru, забирай!