PrimaNota.ru - самый крупный в мире бесплатный архив песенных текстов, аккордов, табулатур и нот


Mao Morta - Novelos Da Paixao - таба, видео

Регистрация Запомнить меня
Войти через:  Facebook Google Twitter Vk Yandex Mail.ru

Mao Morta - Novelos Da Paixao - таба, видео

Печатать
Просмотров: 71
-------------------------------------------------------------------------------
                             "Novelos da Paixão" - Mão Morta
-------------------------------------------------------------------------------
Tabbed by: Matilde Coimbra


INTRO:
e|---------------------------------------------------------------------------|
B|---------------------------------------------------------------------------|
G|---------------------------------------------------------------------------|
D|------3-----3-------------------3------------------------------------------|
A|-5------5-5---5-3-0---3-0-0-3-5---5----------------------------------------|
E|---------------------------------------------------------------------------| x4


REFRÃO/CHORUS:
e|---------------------------------------------------------------------------|
B|---------------------------------------------------------------------------|
G|---------------------------------------------------------------------------|
D|------3-----3-------------------------5-----5-------------------5----------|
A|-5------5-5---5-3-0---3-0-0-3-5-3-7-----7-7---7-5-----5-----5-7------------|
E|--------------------------------------------------7-----7-7----------------| x2

e|---------------------------------------------------------------------------|
B|---------------------------------------------------------------------------|
G|---------------------------------------------------------------------------|
D|------3-----3--------------------------------------------------------------|
A|-5------5-5---5-3-0---3-0-0-3-0-3-----5-----5---5-----3-----3---3----------|
E|------------------------------------3---3-3---3-----1---1-1---1------------|

e|---------------------------------------------------------------------------|
B|---------------------------------------------------------------------------|
G|---------------------------------------------------------------------------|
D|---------------------------------------------------------------------------|
A|--5---7-/8--7--5--7-/8--7--5--7--/8----------------------------------------|
E|---------------------------------------------------------------------------|


INTRO: x4
REFRÃO


SOLO:(?) Ando a tentar encontrar as notas certas porque aprendi isto de ouvido e como há 
duas guitarras não é bem claro qual delas é a principal.


INTRO: x2
REFRÃO

                                        FIM / THE END
Добавлено: 16.11.2015
Вам также может быть интересно:
Другие материалы по этой песне:
  • Аккорды и текст

Страница создана 16.11.2015
http://primanota.ru/mao-morta/novelos-da-paixao-chords.htm
Привет, Гость.
Предлагаем пройти революционный курс по гитаре.
Подарок от PrimaNota.Ru, забирай!