PrimaNota.ru - самый крупный в мире бесплатный архив песенных текстов, аккордов, табулатур и нот


Manuel Maria Ponce - Prelude No 3 In F - таба, видео

Регистрация Запомнить меня
Войти через:  Facebook Google Twitter Vk Yandex Mail.ru

Manuel Maria Ponce - Prelude No 3 In F - таба, видео

Печатать
Просмотров: 112
12 Preludes - Prelude No 3 in F# (Book 1) - Manuel Maria Ponce (1882-1948)

fingering by Andres Segovia

tabbed by Weed - weed@wussu.com - 9 October 2006

notes and legend below tab

tuning - E A D G B E    time - 4/4


   Andante (moderate speed)

                                        F   F
                              CIV CII   CVI.........                __3__
1   |   |   |   |     |   |   |   |     |   |   |   |     |   |  |  | | |
   -----------------|-------------2---|-----------------|-----------------|
   -4---2---4---7---|-9---7---4-6-----|-----------------|-7-9-11====9p7-6=|
   -----------------|---------4---3---|-6---------------|-----------------|
   ---------1-------|-----4---6---4---|-7---8=======----|-----------------|
   -------------4---|-6---------------|-6-8-9=======----|-----------------|
   -----------------|-----------------|-----------------|-----------------|
    4   2   4   4     4   4     4                         1 1 3      4 2 1
            1   1     1                 1 3
    piano (soft) <<<<<<<<<<<<< >>>>>>>>>>>                with expression

        a piacere
5   |   |   |   |     |   |   |   |     |   |   |   |     |   |   |   |
   -----------------|-----------------|-----------------|-----------------|
   =====----2--6----|-----------------|-----------------|-----------------|
   -----8-3-------6=|===8-----6-------|---------8-------|---------6---4---|
   -------------8---|-----6-8-----4---|-6=======6-------|-------------6---|
   -----------------|-----------------|---------9-------|---------9-------|
   -----------------|-----------------|---------7-------|-9---7-----------|
        4 2 1  1 3 1    3 1 3     1     1       3                 4
                                                1         3   1   1   3
                                                4
                                                2         piano    <<<<<<<

        CIV                                         _3_
9   |   |   |   |     |   |   |   |     |   |   |   |..   |   |   |   |
   -----4-----------|-----------------|-----------------|-----------------|
   -7-------4---2---|-5===========----|-2h4-5=======420=|=====4------2----|
   ---------4---3---|-2===========----|-----------------|-------1-3---1-3=|
   ---------3---4---|-----------------|-----------------|-----------------|
   -6---4-----------|-3===========----|-----------------|-----------------|
   -----------------|-----------------|-----------------|-----------------|
    4       4   1     4                 1 3 4       31        4 1 1  41 3
            3   2     1
    3       2   3     3
   <<<<<<<<<<<<<<<<<                   with expression


                                      F
13  |   |   |   |     |   |   |   |     |   |   |   |     |   |   |   |
   -----------------|-----------------|-----------------|-----------------|
   ---4-------------|---------9=======|-----------------|-----------------|
   ===--------------|---------6=======|---------4---3---|-1---3h4-6=======|
   -----4-6-9-------|---------9=======|-----------------|-3---------------|
   -------------4---|-6=======8=======|-------------1-2-|-4---------------|
   -----------------|-----------------|-7---6---4-------|-----------------|
      4                       4                 4   3     1   1 2 4
                                                          3
        2 4 4   2     2       2         4   3   3   1 2   4
                                                 <<<<<<<<<<<<<<<<<


                       CII...................
17   |   |   |   |     |   |   |   |     |   |   |   |
   --0=======-------|-----------------|----------------||
   --0=======3======|--2=======2======|======----------||
   --0=======2======|--3=======3======|======----------||
   -----------------|-----------------|----------------||
   -----------======|-----------------|----------------||
   --0=======1------|--2=======2======|======----------||
             4
             2
             1
  forte (loud) >>>>>>>>


notes
-----

hammer-ons and pull-offs have been used for slurs up and slurs down

legend
------

left hand fingering below tab
1    - index
2    - middle                    CII  - barre on the 2nd fret
3    - ring                      CIV  - barre on the 4th fret
4    - little                    CVI  - barre on the 6th fret

<<<< - getting louder
>>>> - getting softer
a piacere - at pleasure, the timing is up to the performer
F    - fermata (pause, hold the note)

__3__
| | |  - triplet (3 notes in the time of 2)

=    - note held for the value shown
p    - pull off
h    - hammer on
Добавлено: 26.02.2012
Другие материалы по этой песне:
  • Аккорды и текст

Страница создана 26.02.2012
http://primanota.ru/manuel-maria-ponce/prelude-no-3-in-f-chords.htm
Привет, Гость.
Предлагаем пройти революционный курс по гитаре.
Подарок от PrimaNota.Ru, забирай!