PrimaNota.ru - самый крупный в мире бесплатный архив песенных текстов, аккордов, табулатур и нот


Manuel De Falla - Will O The Wisp Cancion Del Fuego Fatuo Chanson Du Feu Follet - таба, видео

Регистрация Запомнить меня
Войти через:  Facebook Google Twitter Vk Yandex Mail.ru

Manuel De Falla - Will O The Wisp Cancion Del Fuego Fatuo Chanson Du Feu Follet - таба, видео

Печатать
Просмотров: 138
standard tuning

|---------12---|-----0---|---------12---|-----0---|--------------|
|---------11---|---------|---------11---|---------|---10-10------|
|---------10---|---------|---------10---|---------|----9---------|
|-0------------|-----8-7-|-0------------|-----8-7-|----8--7------|
|-----12-------|-0-------|-----12-------|-0-------|-0------------|
|--------------|---------|--------------|---------|--------------|

|-5---10---10---|-(10)---8-10-(10)---|--7----5---10---|
|---------------|----------13-(13)---|----------------|
|-----------7---|--------------------|------------7---|
|------7--------|---5----------------|-------7--------|
|-5-------------|--------7------0----|--5-------------|
|---------------|--------------------|----------------|

|-(10)---8-10-(10)---|-7----5--------|-------7-------|
|----------13-(13)---|------------8--|-(8)-----------|
|--------------------|------------7--|---------------|
|---5----------------|------7--------|--5------------|
|--------7------0----|-5-------------|-------7-------|
|--------------------|---------------|------------5--|

|-7--8------12---|-----0-------|---------12---|-------------|
|---12-10---11---|-------------|---------11---|-------------|
|-----------10---|-------------|---------10---|-----9-------|
|----------------|-----8---7---|-0---7--------|-------------|
|-5--------------|-0-----------|--------------|-------------|
|----------------|-------------|--------------|-------------|

-----------------------------

|-7--8--------|---10-11---|---------------|---------------|
|---12-10--10-|------15---|--8----8---8---|-8---6-8-------|
|-------------|-----------|-----------7---|-------10------|
|-------------|---------12|---------------|-7---------0---|
|-5-----------|-5---------|-------5-------|---------------|
|-------------|-----------|--5------------|---------------|

|-5----6-5-|-----10-11---|-----------------|-0-------------|
|--------8-|--------15---|--8----8---8-----|10---10--------|
|----------|-------------|-----------7-----|-9-------------|
|----------|-0---------12------------------|-8---7---------|
|---5------|-------------|-------5---------|---------------|
|-3--------|-------------|--5--------------|---------------|

|-7---5---10---|-(10)---8-10-(10)---|--7----5---10---|
|--------------|----------13-(13)---|----------------|
|----------7---|--------------------|------------7---|
|-----7--------|---5----------------|-------7--------|
|-5------------|--------7------0----|--5-------------|
|--------------|--------------------|----------------|

|-10---8-10-(10)---|--7----5-------|-------7-------|-7--8----12---|
|--------13-(13)---|-----------8---|-(8)-----------|---12-10-11---|
|------------------|-----------7---|---------------|---------10---|
|-5----------------|-------7-------|--5------------|--------------|
|------7-----0-----|--5------------|-------7-------|-5------------|
|------------------|---------------|------------5--|--------------|

-------------

|-----0---|--------|---3---|-------------|22------|
|---------|--------|---1---|---------5---|----3---|
|---------|------7-|---3---|---------6---|----3---|
|-----87--|----7---|-------|---------7---|----5--3|
|-0-------|-5------|-3---1-|-----7-------|--------|
|---------|--------|-------|-5-----------|--------|

|----3---|-------|---------|-------|-----5-|-10-----|-------|-------*|
|----1---|-------|---------|-------|-------|--------|-------|-------*|
|----0---|---9---|---------|-------|---7---|--------|-------|-------*|
|--------|-------|---------|-------|-7-----|--------|-4-----|-4-----*|
|-3----1-|-0---7-|---------|-----5-|-------|--------|-0-----|-0-----*|
|--------|-------|-----8-7-|-0-7---|-------|--------|-0-----|-0-----*|
Добавлено: 23.02.2012
Другие материалы по этой песне:
  • Аккорды и текст

Страница создана 23.02.2012
http://primanota.ru/manuel-de-falla/will-o-the-wisp-cancion-del-fuego-fatuo-chanson-du-feu-follet-chords.htm
Привет, Гость.
Предлагаем пройти революционный курс по гитаре.
Подарок от PrimaNota.Ru, забирай!