PrimaNota.ru - самый крупный в мире бесплатный архив песенных текстов, аккордов, табулатур и нот


Manuel De Falla - The Millers Dance La Danza Del Molinero - таба, видео

Регистрация Запомнить меня
Войти через:  Facebook Google Twitter Vk Yandex Mail.ru

Manuel De Falla - The Millers Dance La Danza Del Molinero - таба, видео

Печатать
Просмотров: 221
Arrangement for two guitars
time signature:  3/4


  Introduction
E||---3====----3--4-2-|-3===------4-2-3===-|
B||---3---------------|--------------------|
G||---4---------------|--------------------|
D||---0---------------|--------------------|
A||-------------------|--------------------|
E||-------------------|--------------------|
 ||                                        |
 ||                                        |
E||---3---------------|--------------------|
B||---3---------------|--------------------|
G||---4---------------|--------------------|
D||---5---------5-6-4-|-5===------6-4-5===-|
A||---5---------------|--------------------|
E||---3---------------|--------------------|
    ff.


E|--4-2-3--4-2-3===--|---4-2-3--4-2-3--4-2-|
B|-------------------|---------------------|
G|-------------------|---------------------|
D|-------------------|---------------------|
A|-------------------|---------------------|
E|-------------------|---------------------|
 |                                         |
 |                                         |
E|-------------------|---------------------|
B|-------------------|---------------------|
G|-------------------|---------------------|
D|--6-4-5--6-4-5===--|---6-4-5--6-4-5--6-4-|
A|-------------------|---------------------|
E|-------------------|---------------------|


E|-3--4-2-3--4-2-3--4-2-|-3-----------------|
B|----------------------|-------6-8---6-----|
G|----------------------|-----------7-----7-|
D|----------------------|---------------8---|
A|----------------------|-------------------|
E|----------------------|-------------------|
 |                                          |
 |                                          |
E|----------------------|-------------------|
B|----------------------|-------------------|
G|----------------------|-------------------|
D|-5--6-4-5--6-4-5--6-4-|-5-----3-5---3-----|
A|----------------------|-----------5-----5-|
E|----------------------|---------------6---|


E|----------------------|----------------------|
B|----------------------|----------------------|
G|----------------------|--------------3-5-3---|
D|-5======--------6h8p6-|-5======----6-------6-|
A|----------------------|----------------------|
E|----------------------|----------------------|
 |                --3--                        |
 |                                             |
E|----------------------|----------------------|
B|----------------------|----------------------|
G|----------------------|-0--------------------|
D|----------------------|----------------------|
A|----------------------|----------------3-----|
E|-3======--------4h6p4-|-3----------4-6---6-4-|


E|------------------------|-------------------------|
B|------------------------|-------------3-4-3-------|
G|------------3-5-7-5-----|---------3-5-------5-3---|
D|-5====----6---------8-6-|-5===--6---------------6-|
A|------------------------|-------------------------|
E|------------------------|-------------------------|
 |                                                  |
 |                                                  |
E|------------------------|-------------------------|
B|------------------------|-------------------------|
G|------------------------|-------------------------|
D|------------------------|-------------------------|
A|--------------3-5-3-----|-----------3-5-6-5-3-----|
E|-3====----4-6-------6-4-|-3===--4-6-----------6-4-|


E|---------------------------|----------------------|
B|---------3-4-6-4-3---------|----------------------|
G|-----3-5-----------5-3-----|----------------------|
D|-5-6-------------------6-5=|==--6-4-5===-----6-4--|
A|---------------------------|----------------------|
E|---------------------------|----------------------|
 |                                                  |
 |                                                  |
E|---------------------------|----------------------|
B|---------------------------|----------------------|
G|---------------------------|----------------------|
D|-------------3-------------|----------------------|
A|-------3-5-6---6-5-3-------|----------------------|
E|-3-4-6---------------6-4-3=|==--4-2-3===-----4-2--|




E|-------------------|-------------------------|
B|-------------------|-------------------------|
G|-------------------|-------------------------|
D|-5-6-4-5-6-4-5-6-4-|-5--5--5--5--5--5--------|
A|-------------------|-------------------------|
E|-------------------|-------------------------|
 |                                             |
 |                                             |
E|-------------------|-------------------------|
B|-------------------|-------------------------|
G|-------------------|-------------------------|
D|-------------------|-------------------------|
A|-------------------|-------------------------|
E|-3-4-2-3-4-2-3-4-2-|-3--------3--------------|


   ff.
E|-0-0-0-0-0---0---|-0---0-0-0-0---0---|
B|-0-0-0-0-0---0---|-0---0-0-0-0---0---|
G|-1-1-1-1-1---1---|-2---2-2-2-2---2---|
D|-2-2-2-2-2---2---|-3---3-3-3-3---3---|
A|-2-2-2-2-2---2---|-0---0-0-0-0---0---|
E|-0-0-0-0-0---0---|-------------------|
 |                                     |
 |                                     |
E|-0-0-0-0-0---0---|-0---0-0-0-0---0---|
B|-0-0-0-0-0---0---|-0---0-0-0-0---0---|
G|-1-1-1-1-1---1---|-2---2-2-2-2---2---|
D|-2-2-2-2-2---2---|-3---3-3-3-3---3---|
A|-2-2-2-2-2---2---|-0---0-0-0-0---0---|
E|-0-0-0-0-0---0---|-------------------|


E|-0-0-0-0-0---0---|-0---0-0-0-0---0---|
B|-0-0-0-0-0---0---|-0---0-0-0-0---0---|
G|-1-1-1-1-1---1---|-2---2-2-2-2---2---|
D|-2-2-2-2-2---2---|-3---3-3-3-3---3---|
A|-2-2-2-2-2---2---|-0---0-0-0-0---0---|
E|-0-0-0-0-0---0---|-------------------|
 |                                     |
 |                                     |
E|-0-0-0-0-0---0---|-0---0-0-0-0---0---|
B|-0-0-0-0-0---0---|-0---0-0-0-0---0---|
G|-1-1-1-1-1---1---|-2---2-2-2-2---2---|
D|-2-2-2-2-2---2---|-3---3-3-3-3---3---|
A|-2-2-2-2-2---2---|-0---0-0-0-0---0---|
E|-0-0-0-0-0---0---|-------------------|


E|-0-0-0-0-0---0---|-0---0-0-0-0---0---|
B|-0-0-0-0-0---0---|-1---1-1-1-1---1---|
G|-1-1-1-1-1---1---|-0---0-0-0-0---0---|
D|-2-2-2-2-2---2---|-2---2-2-2-2---2---|
A|-2-2-2-2-2---2---|-3---3-3-3-3---3---|
E|-0-0-0-0-0---0---|-------------------|
 |                                     |
 |                                     |
E|-0-0-0-0-0---0---|-0---0-0-0-0---0---|
B|-0-0-0-0-0---0---|-1---1-1-1-1---1---|
G|-1-1-1-1-1---1---|-0---0-0-0-0---0---|
D|-2-2-2-2-2---2---|-2---2-2-2-2---2---|
A|-2-2-2-2-2---2---|-3---3-3-3-3---3---|
E|-0-0-0-0-0---0---|-------------------|


E|--3------3---3---|--1--1--1--1--1--1---|
B|--3------3---3---|--0--0--0--0--0--0---|
G|--4------4---4---|--2--2--2--2--2--2---|
D|--5------5---5---|--3--5--3--5--3--5---|
A|--5------5---5---|---------------------|
E|--3------3---3---|---------------------|
 |                                       |
 |                                       |
E|--3------3---3---|---------------------|
B|--3------3---3---|---------------------|
G|--4------4---4---|---------------------|
D|--5------5---5---|--3--5--3--5--3--5---|
A|--5------5---5---|--3--3--3--3--3--3---|
E|--3------3---3---|--1--1--1--1--1--1---|


E|--0---<12>--------|---------------------|
B|--0---------------|----------------5----|
G|--1---------------|---------------------|
D|--2---------------|---------------------|
A|------------------|---------------------|
E|------------------|---------------------|
 |                                        |
 |      pp.                               |
E|------------------|---------------------|
B|------0---0---0---|------0--------------|
G|------2---2---2---|------2--------------|
D|--2---2---2---2---|------2------------2-|
A|--2---------------|---------------0-2---|
E|--0---------------|--0-------- -0-------|


E|-5-----5-----5^7^5------|------------------------|
B|-------------------8--6-|-5----------------5-----|
G|------------------------|------------------------|
D|------------------------|------------------------|
A|------------------------|------------------------|
E|------------------------|------------------------|
 |                                                 |
 |                                                 |
E|------------------------|------------------------|
B|-------------------0--3-|-------------------0--3-|
G|----------------2-------|----------------2-------|
D|----------0--2----------|---------0---2----------|
A|----0--2----------------|----0--2----------------|
E|-0----------------------|-0----------------------|


E|-5---5---5-------|-----------------|
B|-------------8-6-|-8-6-5-------5---|
G|-----------------|-----------------|
D|-----------------|-----------------|
A|-----------------|-----------------|
E|-----------------|-----------------|
 |                                   |
 |                                   |
E|-----------------|-----------------|
B|-------------0-3-|-------------0-3-|
G|-----------2-----|-----------2-----|
D|-------0-2-------|-------0-2-------|
A|---0-2-----------|---0-2-----------|
E|-0---------------|-0---------------|


E|-5---5---5-----5-|-7-8-7-5---5-7-8-|
B|-------------8---|---------8-------|
G|-----------------|-----------------|
D|-----------------|-----------------|
A|-----------------|-----------------|
E|-----------------|-----------------|
 |                                   |
 |                                   |
E|-----------------|-----------------|
B|-------------0-1-|-----5-----------|
G|-----------------|-----4-----------|
D|---------2-3-----|-----2-----------|
A|-----2-3---------|-----2-----------|
E|-0-1-------------|-0---------------|


E|-7-8-10-11-10-8-7-8-7----------|----3-3-3-3-3---3---|
B|----------------------9-8------|----3-3-3-3-3---3---|
G|--------------------------10-8-|-7--4-4-4-4-4---4---|
D|-------------------------------|----5-5-5-5-5---5---|
A|-------------------------------|----5-5-5-5-5---5---|
E|-------------------------------|----3-3-3-3-3---3---|
 |                                                    |
 | f.               f.                ff.             |
 |                                                    |
E|-2----------------1------------|----3-3-3-3-3---3---|
B|-1----------------1------------|----3-3-3-3-3---3---|
G|-1----------------1------------|-4--0-0-0-0-0---0---|
D|-1----------------0------------|-5--0-0-0-0-0---0---|
A|-------------------------------|-5--2-2-2-2-2---2---|
E|-------------------------------|-3--3-3-3-3-3---3---|


E|-3---6-6-6-6-4-4---|-3---------------|
B|-3---6-6-6-6-4-4---|-3---------------|
G|-4---7-7-7-7-5-5---|-4---<12>===-----|
D|-5---8-8-8-8-6-6---|-5---------------|
A|-5---8-8-8-8-6-6---|-5---------------|
E|-3---6-6-6-6-4-4---|-3---------------|
 |                                     |
 |                                     |
E|-3-----------------|-----------------|
B|-3-----------------|-----3---3---3---|
G|-0-----3---3---2---|-0---5---5---5---|
D|-0---3---3---1-----|-0---5---5---5---|
A|-2---1---1---------|-2---------------|
E|-3-----------------|-3---------------|


E|-----10-11-13-11--10---|---------------------|
B|-----9-----------------|---------------------|
G|-----------------------|---------------------|
D|-----10----------------|-----<12>-<12>-<12>--|
A|-----------------------|---------------------|
E|-----------------------|---------------------|
 |                                             |
 |                                             |
E|-----------------------|---------------------|
B|----------1h3h4-/-11==-|------3----3----3----|
G|-----0h2h3-------------|------5----5----5----| 
D|-0=--------------------|------5----5----5----|
A|-----------------------|---------------------|
E|-----------------------|-3===----------------|


E|-----10-11-13-11--10---|---------------------|
B|-----9-----------------|---------------------|
G|-----------------------|---------------------|
D|-----10----------------|-----<12>-<12>-<12>--|
A|-----------------------|---------------------|
E|-----------------------|---------------------|
 |                                             |
 |                                             |
E|-----------------------|---------------------|
B|----------1h3h4-/-11==-|------3----3----3----|
G|-----0h2h3-------------|------5----5----5----|
D|-0---------------------|------5----5----5----|
A|-----------------------|---------------------|
E|-----------------------|-3===----------------|


E|-----------------|--------------------|
B|-----------------|--------------------|
G|---5---5---5-7-8-|-5------------------|
D|-5---5---8-------|----<12>-<12>-<12>--|
A|-----------------|--------------------|
E|-----------------|--------------------|
 |pizz.............                     |
 |                                      |
E|-----------------|--------------------|
B|-----------------|-----3----3----3----|
G|-----------------|-----5----5----5----|
D|-----------------|-----5----5----5----|
A|---3---3---3-5-6-|-3===---------------|
E|-3---3---6-------|--------------------|
  pizz............


E|-----------------|---------------------|
B|-----------------|---------------------|
G|---5---5-7-8-7-5-|---------------------|
D|-5---8-----------|-8--<12>-<12>-<12>---|
A|-----------------|---------------------|
E|-----------------|---------------------|
 |pizz.............                      |
 |                                       |
E|-----------------|---------------------|
B|-----------------|-----3----3----3-----|
G|-----------------|-----5----5----5-----|
D|-----------------|-----3----3----3-----|
A|---3---3-5-6-5-3-|---------------------|
E|-3---6-----------|-6===----------------|
  pizz............


E|-----------------|-----------------|
B|---------6-8-6---|-----6-8-9-8-6---|
G|---8-7-8-------8-|-7-8-----------8-|
D|-8---------------|-----------------|
A|-----------------|-----------------|
E|-----------------|-----------------|
 |                                   |
 |                                   |
E|-----------------|-----------------|
B|-----------------|-----------------|
G|-----------------|-----------------|
D|---------3-5-3---|-----3-5-6-5-3---|
A|---6-5-6-------6-|-5-6-----------6-|
E|-6---------------|-----------------|
  pizz...............................


E|-------------------------|----10--10--10---|
B|-----6-------------------|----12--12--12---|
G|-7-8---8-7-5---5-7-5-----|----12--12--12---|
D|-------------8-------8-6-|-5--12--12--12---|
A|-------------------------|-----------------|
E|-------------------------|-----------------|
 |                                           |
 |                               ff.         |
E|-------------------------|-----3---3---3---|
B|-------------------------|-----3---3---3---|
G|-------------------------|-----4---4---4---|
D|-----3-------------------|-----5---5---5---|
A|-5-6---6-5-3---3-5-3-----|-----5---5---5---|
E|-------------6-------6-4-|-3---3---3---3---|
  pizz....................

  
rasqueado..............................................
E|-10-10-10-10-10-10-10-10-10-|-10-10-10-10-10-10-10-10-10-|
B|-9--9--9--9--9--9--9--9--9--|-10-10-10-10-10-10-10-10-10-|
G|-8--8--8--8--8--8--8--8--8--|-0--0--0--0--0--0--0--0--0--|
D|-0--0--0--0--0--0--0--0--0--|-0--0--0--0--0--0--0--0--0--|
A|----------------------------|----------------------------|
E|----------------------------|----------------------------|
 |                                                         |
 |                                                         |
E|-4--------4--------4--------|----------------------------|
B|-1--3--1--3--1--3--1--3--1--|----------------------------|
G|-1--------1--------1--------|-2--0--2--0--2--0--2--0--2--|
D|-0--------0--------0--------|-0--------0-----0-----0-----|
A|----------------------------|----------------------------|
E|----------------------------|-3--------3-----3-----3-----|


E|-10---7-7-7-7-7---7---|-7---0-0-0-0---0---|
B|-12---6-6-6-6-6---6---|-5---0-0-0-0---0---|
G|-0----7-7-7-7-7---7---|-4---1-1-1-1---1---|
D|-0----5-5-5-5-5---5---|-6---2-2-2-2---2---|
A|----------------------|-----2-------------|
E|----------------------|-----0-------------|
 |                                          |
 |                             p.           |
E|----------------------|-------------------|
B|-3----0-0-0-0-0---0---|-0-----------------|
G|-4----0-2-0-2-0---2---|-1-----------------|
D|-5----0-0-0-0-0---0---|-2-----------------|
A|-5----2-2-2-2-2---2---|-2-----2---2---2---|
E|-3----3-3-3-3-3---3---|-0---0---0-----0---|


E|-0---0-0-0-0---0---|-----0-0-0-0---0---|
B|-0---0-0-0-0---0---|-----0-0-0-0---0---|
G|-2---2-2-2-2---2---|-----1-1-1-1---1---|
D|-3---3-3-3-3---3---|-----2-2-2-2---2---|
A|-0-----------------|-----2-------------|
E|-------------------|-----0-------------|
 |                                       |
 |                                       |
E|-------------------|-------------------|
B|-------------------|-------------------|
G|-------------------|-------------------|
D|-3---3---3-----3---|-------------------|
A|-0-----0---0---0---|-------2---2---2---|
E|-------------------|-----0---0-----0---|


E|-0---0-0-0-0---0---|-----0-0-0-0---0---|
B|-0---0-0-0-0---0---|-----0-0-0-0---0---|
G|-2---2-2-2-2---2---|-----1-1-1-1---1---|
D|-3---3-3-3-3---3---|-----2-2-2-2---2---|
A|-0-----------------|-------------------|
E|-------------------|-------------------|
 |                                       |
 |                                       |
E|-------------------|-------------------|
B|-------------------|-------------------|
G|-------------------|-------------------|
D|-3---3---3-----3---|-------------------|
A|-0-----0---0---0---|-------2---2---2---|
E|-------------------|-----0---0-----0---|


E|-0---0-0-0-0---0---|-3---3-3-3-3-3-3-3-3-3-|
B|-1---1-1-1-1---1---|-3---5-3-5-3-5-3-5-3-5-|
G|-0---0-0-0-0---0---|-4---4-4-4-4-4-4-4-4-4-|
D|-2---2-2-2-2---2---|-5---0-0-0-0-0-0-0-0-0-|
A|-3---3-3-3-3---3---|-5---------------------|
E|-------------------|-3---------------------|
 |                                           |
 |                    cresc.                 |
E|-0---0-0-0-0---0---|-----------------------|
B|-1---1-1-1-1---1---|-----0-0-0-0-0-0-0-0-0-|
G|-0---0-0-0-0---0---|-0---0-0-0-0-0-0-0-0-0-|
D|-2---2-2-2-2---2---|-0---2-0-2-0-2-0-2-0-2-|
A|-3---3-3-3-3---3---|-2---2-2-2-2-2-2-2-2-2-|
E|-------------------|-3---3-3-3-3-3-3-3-3-3-|


E|-3---1-1-1-1-1-1-|-0---<12>---------|
B|-3---0-0-0-0-0-0-|-0----------------|
G|-4---2-2-2-2-2-2-|-2----------------|
D|-0---3-5-3-5-3-5-|-2----------------|
A|-----------------|-2----------------|
E|-----------------|-0----------------|
 |     ff.                            |
 |                                    |
E|-----------------|------------------|
B|-0---------------|------0---0---0---| 
G|-0---------------|------2---2---2---|
D|-0---3-5-3-5-3-5-|-2----2---2---2---|
A|-2---3-3-3-3-3-3-|-2----------------|
E|-3---1-1-1-1-1-1-|-0----------------|


E|-----7-h-8---10-p8---7---|--------------------|
B|-----6---------------8---|--------------------|
G|-------------------------|--------------------|
D|-----7-------------------|----------------2---|
A|-------------------------|--------------------|
E|-------------------------|--------------------|
 |                                              |
 |                                              |
E|-------------------------|--------------------|
B|-------------------------|------0----0----0---|
G|-------------2/4h5h7/12--|------2----2----2---|
D|------0h2h3h5------------|------2----2----2---|
A|-2-----------------------|--------------------|
E|-------------------------|-0------------------|


E|--------------------|----<5>------------|
B|--------------------|-------------------|
G|-2----2----2--------|-------------------|
D|----------------5-3-|-2-----------------|
A|--------------------|-------------------|
E|--------------------|-------------------|
 |                                        |
 |                                        |
E|-----7h8-10p8---7---|-------------------|
B|-----6----------6---|-----0----0----0---|
G|--------------------|-----2----2----2---|
D|-0---7----------7---|-----2----2----2---|
A|--------------------|-------------------|
E|--------------------|-0-----------------|


E|-----7-h-8---10-p8---7---|-------------------|
B|-----6---------------8---|-------------------|
G|-------------------------|-------------------|
D|-----7-------------------|----------------2--|
A|-------------------------|-------------------|
E|-------------------------|-------------------|
 |                                             |
 |                                             |
E|-------------------------|-------------------|
B|-------------------------|------0----0---0---|
G|------------2/4h5h7/12---|------2----2---2---|
D|-----0h2h3h5-------------|------2----2---2---|
A|-2-----------------------|-------------------|
E|-------------------------|-0-----------------|


E|--------------------|-------------------|
B|--------------------|-------------------|
G|-2----2----2--------|-------------------|
D|----------------5-3-|-5-3--2==----------|
A|--------------------|-------------------|
E|--------------------|-------------------|
 |                                        |
 |                                    ten.|
E|-----7h8-10p8---7---|-------------------|
B|-----6----------6---|------0----0---0---|
G|--------------------|------2----2---2---|
D|-0---7----------7---|------2----2---2---|
A|--------------------|-------------------|
E|--------------------|-0-----------------|


Outro

E|---------------------|---------------------|
B|-3----3----3----3----|-0----0----0----0----|
G|-3----3----3----3----|-2----2----2----2----|
D|-3----3----3----3----|-2----2----2----2----|
A|---------------------|---------------------|
E|---------------------|---------------------|
 |                                           |
 |                                           |
E|---------------------|---------------------|
B|---------------------|---------------------|
G|---------------<12>--|---------------<12>--|
D|---------------------|---------------------|
A|-0=====--------------|---------------------|
E|---------------------|-0=====--------------|


E|---------------------|---------------------|
B|-3----3----3----3----|-0----0----0----0----|
G|-3----3----3----3----|-2----2----2----2----|
D|-3----3----3----3----|-2----2----2----2----|
A|---------------------|---------------------|
E|---------------------|---------------------|
 |                                           |
 |                                           |
E|---------------------|---------------------|
B|---------------------|---------------------|
G|---------------<12>--|---------------<12>--|
D|---------------------|---------------------|
A|-0=====--------------|---------------------|
E|---------------------|-0=====--------------|


E|---------------------|---------------------|
B|-3----3----3----3----|-0----0----0----0----|
G|-3----3----3----3----|-2----2----2----2----|
D|-3----3----3----3----|-2----2----2----2----|
A|---------------------|---------------------|
E|---------------------|---------------------|
 |                                           |
 |cresc.                                     |
E|---------------------|---------------------|
B|---------------------|---------------------|
G|---------------<12>--|---------------<12>--|
D|---------------------|---------------------|
A|-0=====--------------|---------------------|
E|---------------------|-0=====--------------|


E|---------------------|---------------------|
B|-3----3----3----3----|-0----0----0----0----|
G|-3----3----3----3----|-2----2----2----2----|
D|-3----3----3----3----|-2----2----2----2----|
A|---------------------|---------------------|
E|---------------------|---------------------|
 |                                           |
 |                                           |
E|---------------------|---------------------|
B|---------------------|---------------------|
G|---------------<12>--|---------------<12>--|
D|---------------------|---------------------|
A|-0=====--------------|---------------------|
E|---------------------|-0=====--------------|


E|-1----1----1----1----|-0----0----0----0----|
B|-3----3----3----3----|-0----0----0----0----|
G|-3----3----3----3----|-2----2----2----2----|
D|-0----0----0----0----|-2----2----2----2----|
A|---------------------|---------------------|
E|---------------------|---------------------|
 | f.                                        |
 |                      sempre cresc.        |
E|---------------------|---------------------|
B|---------------------|---------------------|
G|---------------<12>--|---------------<12>--|
D|---------------------|---------------------|
A|-0=====--------------|---------------------|
E|---------------------|-0=====--------------|


E|-1----1----1----1----|-0----0----0----0----|
B|-3----3----3----3----|-0----0----0----0----|
G|-3----3----3----3----|-2----2----2----2----|
D|-0----0----0----0----|-2----2----2----2----|
A|---------------------|---------------------|
E|---------------------|---------------------|
 | f.                                        |
 |                                           |
E|---------------------|---------------------|
B|---------------------|---------------------|
G|---------------<12>--|---------------<12>--|
D|---------------------|---------------------|
A|-0=====--------------|---------------------|
E|---------------------|-0=====--------------|


E|-1----1----1----1----|-0----0----0----0----|
B|-3----3----3----3----|-0----0----0----0----|
G|-3----3----3----3----|-2----2----2----2----|
D|-0----0----0----0----|-2----2----2----2----|
A|---------------------|---------------------|
E|---------------------|---------------------|
 | f.                                        |
 |                                           |
E|---------------------|---------------------|
B|---------------------|---------------------|
G|---------------<12>--|---------------<12>--|
D|---------------------|---------------------|
A|-0=====--------------|---------------------|
E|---------------------|-0=====--------------|


E|-1----1----1----1----|-0----0----0----0----|
B|-3----3----3----3----|-0----0----0----0----|
G|-3----3----3----3----|-2----2----2----2----|
D|-0----0----0----0----|-2----2----2----2----|
A|---------------------|---------------------|
E|---------------------|---------------------|
 | f.                                        |
 |                                           |
E|---------------------|---------------------|
B|---------------------|---------------------|
G|---------------<12>--|---------------<12>--|
D|---------------------|---------------------|
A|-0=====--------------|---------------------|
E|---------------------|-0=====--------------|


E|-10---10---10---10---|-7----7----7----7----|
B|--6----6----6----6---|-0----0----0----0----|
G|--7----7----7----7---|-9----9----9----9----|
D|--8----8----8----8---|-7----7----7----7----|
A|---------------------|---------------------|
E|---------------------|---------------------|
 |                                           |
 | fff.     animando                         |
E|---------------------|---------------------|
B|---------------------|---------------------|
G|---------------<12>--|---------------<12>--|
D|---------------------|---------------------|
A|-0=====--------------|---------------------|
E|---------------------|-0=====--------------|


E|-10---10---10---10---|-7----7----7----7----|
B|--6----6----6----6---|-0----0----0----0----|
G|--7----7----7----7---|-9----9----9----9----|
D|--8----8----8----8---|-7----7----7----7----|
A|---------------------|---------------------|
E|---------------------|---------------------|
 |                                           |
 |                                           |
E|---------------------|---------------------|
B|---------------------|---------------------|
G|---------------<12>--|---------------<12>--|
D|---------------------|---------------------|
A|-0=====--------------|---------------------|
E|---------------------|-0=====--------------|


E|-10---10---10---10---|-7----0-0-0-0----0----|
B|--6----6----6----6---|-0----0-0-0-0----0----|
G|--7----7----7----7---|-9----2-2-2-2----2----|
D|--8----8----8----8---|-7----3-3-3-3----3----|
A|---------------------|----------------------|
E|---------------------|----------------------|
 |                                            |
 |                                            |
E|---------------------|----------------------|
B|---------------------|-0--------------------|
G|---------------<12>--|-2--------------------|
D|---------------------|-2------3---3----3----|
A|-0=====--------------|-0----2---2------2----|
E|---------------------|-0----0----------0----|


E|------0---0---0---|-5------------||
B|------0---0---0---|-5------------||
G|------1---1---1---|-5------------||
D|----3-3-3-3-3-3---|-7------------||
A|----2---2---2-----|--------------||
E|----0---0---0-----|--------------||
 |                                 ||
 |                   fff.          ||
E|------0---0---0---|-0------------||
B|------0---0---0---|-1------------||
G|------1---1---1---|-2------------||
D|----3-3-3-3-3-3---|-2------------||
A|----2---2---2-----|-0------------||
E|----0---0---0-----|--------------||


======================


Tablature Explanation:

                                         Tempo Beats
   Pause sign                            /---------\
        %                                |   |   |    

E|----------|-------|-------|----(0----|--------0===|--------|
B|----------|-------|-------|----)1----|------1=----|--------|
G|---<12>---|--5h8--|--8p5--|----(2----|----2=------|---^5---|
D|----------|-------|-------|----)2----|------------|--------|
A|----------|-------|-------|----(0----|0==---------|--------|
E|----------|-------|-------|----------|------------|--------|

    Harmonic   Hammer  Pull   Arpeggiate   Sustain    Mordent  
                on     off                            
Добавлено: 17.05.2012
Другие материалы по этой песне:
  • Аккорды и текст

Страница создана 17.05.2012
http://primanota.ru/manuel-de-falla/the-millers-dance-la-danza-del-molinero-chords.htm
Привет, Гость.
Предлагаем пройти революционный курс по гитаре.
Подарок от PrimaNota.Ru, забирай!