PrimaNota.ru - самый крупный в мире бесплатный архив песенных текстов, аккордов, табулатур и нот


Mansun - Wild Open Space - таба, видео

Регистрация Запомнить меня
Войти через:  Facebook Google Twitter Vk Yandex Mail.ru

Mansun - Wild Open Space - таба, видео

Печатать
Просмотров: 98
WILD OPEN SPACE
BY MANSUN
FROM THE ALBUM ATTACK OF THE GREY LANTERN
1997
-----------------------------------------
Tabbed by AAuuddee@aol.com


INTRO:I don't know if there are 2 guitars or not
but i just tabbed it as if there was only 1 guitar

--0-----0-------------9-------9-------
--6-----6-----------------10------10--
-----7-----7--repeat------------------repeat
----------------------11------11------
--------------------------12------12--
--------------------------------------


VERSE1: same as intro


CHORUS:
  F   A =20
--1---5--
--1---5--
--2---6--repeat
--3---7--
--3---7--
--1---5--


VERSE2: same as verse1 but sometimes,
there is a 2nd guitar playing:

--x--x--
--x--x--
--x--x--repeat
--x--x--
--x--x--
--x--x--


Just before the chorus, guitar2 plays:
  A5
-----
-----
-----
--7--
--7--
--5--


CHORUS


SOLO:

Guitar1: let ring + effects
-----------------------------------------------------------
--14~--14s15s14s15s14--14~--14--14--10---------------------
---------------------------------------12~--11h12--11h12s--
-----------------------------------------------------------
-----------------------------------------------------------
-----------------------------------------------------------

-------------------------------------------------
--15--15--14--14--14--12--10---------------------
-----------------------------12~--11h12--11h12s--
-------------------------------------------------
-------------------------------------------------
-------------------------------------------------

---------------------------------------------
--15s14--14~--14--14--10---------------------
-------------------------12~--11h12--11h12s--
---------------------------------------------
---------------------------------------------
---------------------------------------------

-------------------------------------------------------
--15--15--14--14--14--12--10---------------------s14~--
-----------------------------12~--11h12--11h12s--------
-------------------------------------------------------
-------------------------------------------------------
-------------------------------------------------------

Guitar2:
  A5  E5
---------
---------
---------
--7---2--repeat
--7---2--
--5---0--

Guitar3: starts later

---------------------------14---------
-----------------------------------15-
--------12----14----16----------------x2
--12s14----14----14----14------14-----
--------------------------------------
--------------------------------------

------------------------------12--
-----------------------15---------
-----12----14----16---------------
--14----14----14----14----14------
----------------------------------
----------------------------------

---------------------------14---------
----------------------------------15--
--------12----14----16----------------
--12s14----14----14----14------14-----
--------------------------------------
--------------------------------------

------------------------------12-------
-----------------------15---------15~--
-----12----14----16--------------------
--14----14----14----14----14-----------
---------------------------------------
---------------------------------------


VERSE3: same as the others

Just before the chorus,another guitar plays:
  D5  A5
---------
---------
--7------
--7---7--
--5---7--
------5--


CHORUS + guitar2 plays: (let ring)
---------------------12--
--10--12--13s12--10------x2
-------------------------
-------------------------
-------------------------
-------------------------

-----------------------
--10--12--13s12--10----
--------------------9--
-----------------------
-----------------------
-----------------------

---------------------12--15s12--12--
--10--12--13s12--10-----------------
------------------------------------
------------------------------------
------------------------------------
------------------------------------

---------------------12--
--10--12--13s12--10------
-------------------------
-------------------------
-------------------------
-------------------------

-----------------------
--10--12--13s12--10----
--------------------9--
-----------------------
-----------------------
-----------------------

---------------------12--15s12--12--
--10--12--13s12--10-----------------
------------------------------------
------------------------------------
------------------------------------
------------------------------------

---------------------12--
--10--12--13s12--10------
-------------------------
-------------------------
-------------------------
-------------------------

-----------------------
--10--12--13s12--10----
--------------------9--
-----------------------
-----------------------
-----------------------


ENDING:

Guitar1:
--0-----0-------------9-------9-------
--6-----6-----------------10------10--
-----7-----7--repeat------------------repeat
----------------------11------11------
--------------------------12------12--
--------------------------------------

Guitar2: starts later
 Dm    A
--5----5--
--6----5--
--7-*--6--
--7----7--
--5----7--
-------5--

*here a 3rd guitar plays this with effects:
-----------------------
--10--12--13s12--10----
--------------------9--
-----------------------
-----------------------
-----------------------

ENJOY!!

To see a list of my tabs,please visit my website:
www.multimania.com/aauuddee
     
Добавлено: 26.09.2013
Другие материалы по этой песне:
  • Аккорды и текст

Страница создана 26.09.2013
http://primanota.ru/mansun/wild-open-space-chords.htm
Привет, Гость.
Предлагаем пройти революционный курс по гитаре.
Подарок от PrimaNota.Ru, забирай!