PrimaNota.ru - самый крупный в мире бесплатный архив песенных текстов, аккордов, табулатур и нот


Mansions - City Dont Care - аккорды и текст, видео

Регистрация Запомнить меня
Войти через:  Facebook Google Twitter Vk Yandex Mail.ru

Mansions - City Dont Care - аккорды и текст, видео

Печатать
Просмотров: 53
City Dont Care
Mansions
Artist: Mansions
Song Name: City Don't Care
Instrument: Guitar
Tuning: E standard (Capo 1 Fret)
TABBED BY https://www.youtube.com/user/LittleBlueGuitars182

Intro / Verse (x6)
e-------------------------------------------------------------------------------------|
B--3--3---3---3--3--3----3----3----3--3--3-----3----3---3--3--3----3---3---3--3--3----|
G--2--2---2---2--2--2----0----0----0--0--0-----0----0---0--0--0----0---0---0--0--0----|
D--0--0---0---0--0--0----2----2----2--2--2-----0----0---0--0--0----0---0---0--0--0----|
A------------------------0----0----0--0--0-----2----2---2--2--2----2---2---2--2--2--|
E-------------------------------------------------------------------------------------|

Pre-Chorus
e------------------------------------------------------------------------------------|
B--3---3----3--3--3----3--3--3----3--3--3----3---3----3--3--3----3--3--3----3--3--3--|
G--0---0----0--0--0----0--0--0----0--0--0----0---0----0--0--0----0--0--0----0--0--0--|
D--2---2----2--2--2----2--2--2----2--2--2----0---0----0--0--2----2--2--4----4--4--4--|
A--2---2----2--2--2----2--2--2----2--2--2----x---x----x--x--x----x--x--x----x--x--x--|
E--0---0----0--0--0----0--0--0----0--0--0----3---3----3--3--3----3--3--3----3--3--3--|

e---------------------------------------------------------------------------------------|
B--3---3----3--3--3----3--3--3----3--3--3----2---2----2--2--2----2--2--2----x--x--x--x--|
G--0---0----0--0--0----0--0--0----0--0--0----2---2----2--2--2----2--2--2----x--x--x--x--|
D--2---2----2--2--2----2--2--2----2--2--2----2---2----2--2--2----2--2--2----x--x--x--x--|
A--2---2----2--2--2----2--2--2----2--2--2----0---0-----0--0--0---0--0--0----x--x--x--x--|
E--0---0----0--0--0----0--0--0----0--0--0-----------------------------------------------|

*Chorus (same as verse) (x2)
*Verse 2 (x4)

Pre-chorus 2
e-------------------------------------------------|
B---3----3-----3--3--3------2~-----------2--2--2--|
G---0----0-----0--0--0------2~-----------2--2--2--|
D---2----2-----2--2--2------2~-----------2--2--2--|
A---2----2-----2--2--2------0~-----------0--0--0--|
E---0----0-----0--0--0----------------------------|

Chorus 2 (x4)(At the end of the 2nd chorus, play the 2nd chord of the first pre-chorus twice)

Bridge
e---2-------2--2--2-------------------------3----------------3--3--3------------------|
B---3-------3--3--3------2------2--2--2-----3----------------3--3--3------------------|
G---4-------4--4--4------2------2--2--2-----0-----0----0-----0--0--0------------------|
D---4-------4--4--4------2------2--2--2-----0----------------0--0--0------------------|
A---2-------2--2--2------0------0--0--0-----x----------------x--x--x------------------|
E-------------------------------------------3----------------3--3--3------------------|

e---2-------2--2--2-------------------------3-----------------5------|
B---3-------3--3--3------2------2--2--2-----3--------3--0-------3----|
G---4-------4--4--4------2------2--2--2-----0-----0--------0------0--|
D---4-------4--4--4------2------2--2--2-----0------------------------|
A---2-------2--2--2------0------0--0--0-----x------------------------|
E--------------------------------------------3-----------------------|

e---2-----2-----2--2--2----------------------------------3----------------------------3---3---3-|
B---3-----3-----3--3--3------2-----------2---2---2--2----3--------0-------0------0----0---0---0-|
G---4-----4-----4--4--4------2--------2----------2--2----0-----0--------0------0------0---0---0-|
D---4-----4-----4--4--4------2-------------------2--2----0------------0------0--------0---0---0-|
A---2-----2-----2--2--2------0-------------------0--0----x----------------------------x---x---x-|
E--------------------------------------------------------3----------------------------3---3---3-|


e---2-------2--2--2-------------------------3-----3-----3---3---3-----3---3---3-----3---3---3----|
B---3-------3--3--3------2------2--2--2-----0-----0-----0---0---0-----0---0---0-----0---0---0----|
G---4-------4--4--4------2------2--2--2-----0-----0-----0---0---0-----0---0---0-----0---0---0----|
D---4-------4--4--4------2------2--2--2-----0-----------0---0---0-----0---0---0-----0---0---0----|
A---2-------2--2--2------0------0--0--0-----x-----------x---x---x-----x---x---x-----x---x---x----|
E-------------------------------------------3-----------3---3---3-----3---3---3-----3---3---3----|

Chorus 3 (x4)
Ending (Play the 2nd chord of the 1st pre-chorus again, until the song finishes)


Key
b = Bend
/ = Slide Up
\ = Slide Down
h = Hammer On
p = Pull Off
x = Mute String
~ = Sustain
PM... = Palm Mute
Добавлено: 25.04.2016
Вам также может быть интересно:
Другие материалы по этой песне:
  • Аккорды и текст

Страница создана 25.04.2016
http://primanota.ru/mansions/city-dont-care-chords.htm
Привет, Гость.
Предлагаем пройти революционный курс по гитаре.
Подарок от PrimaNota.Ru, забирай!