PrimaNota.ru - самый крупный в мире бесплатный архив песенных текстов, аккордов, табулатур и нот


Manowar - Flight Of The Bumble Bee - таба, видео

Регистрация Запомнить меня
Войти через:  Facebook Google Twitter Vk Yandex Mail.ru

Manowar - Flight Of The Bumble Bee - таба, видео

Печатать
Просмотров: 207
Авторы музыки: Николай Андреевич Римский-Корсаков

Flight Of The Bumblebee (Fingering included)

   T   3   2   1    T  3  2 1   T 3 2 1   T 3 2 1    T 3 2 1    T 3 2 1   T 3 2 1    T 3 2 1    4 3 2 1   4 3 2 1
|-12-11-10-9- -10-9-8-7--8-7-6-5------------------------------------------------------------------------------------|
|-----------------------------------------9-8-7-6-------------------------------------------------------------------|
|----------------------------------------------------9-8-7-6---7-6-5-4--5-4-3-2-------------------------------------|
|--------------------------------------------------------------------------------------6-5-4-3----------------------|
|-------------------------------------------------------------------------------------------------7-6-5-4--5-4-3-2--|
|-------------------------------------------------------------------------------------------------------------------|

 4 3 2 1    4 3 2 1    4 3 2 1    4 3 2 1 1    2 3 4 4    1 2 3
|-----------------------------------------------------------|
|-----------------------------------------------------------|
|-----------------------------------------------------------|
|-----------------------------------------------------------|
|-7-6-5-4--5-4-3-2--7-6-5-4--------------------------4-5-6--|
|---------------------------------8-7-6-5-4---5-6-7-8-------|

MAIN THEME I (Am)
  4 3 2 1 1     4 3 2     4 3 2 1 1      2 3 4 4    3 2 1 1     4 3 2     4 3 2 1 1     2 3 4
|--------------------------------------------------------------------------------|
|--------------------------------------------------------------------------------|
|--------------------------------------------------------------------------------|
|--------------------------------------------------------------------------------|
|-7-6-5-4-3---8-7-6---7-6-5-4-3---4-5-6-7---6-5-4-3---8-7-6---7-6-5-4-3---4-5-6--|
|--------------------------------------------------------------------------------|

MAIN THEME II (Am)
  4 3 2 1     2 1 4 3 4    1 2 3 4   4 3 2    4 3 2 1      2 1 4 3 4    1 2 3 4 4     1 2 3
|----------------------------------------------------------------------------------------------|
|----------------------------------------------------------------------------------------------|
|----------------------------------------------------------------------------------------------|
|---------------------------------------------------------------------------------------4-5-6--|
|-7-6-5-4---5-4----------4-5-6-7-8-7-6---7-6-5-4---5-4----------4-5-6-7-8----------------------|
|-----------------8-7-8---------------------------------------8-7-8----------------------------|

MAIN THEME I (Dm)
  4 3 2 1 1      4 3 2    4 3 2 1 1      2 3 4 4    3 2 1 1     4 3 2     4 3 2 1 1     2 3 4
|--------------------------------------------------------------------------------|
|--------------------------------------------------------------------------------|
|--------------------------------------------------------------------------------|
|-7-6-5-4-3---8-7-6---7-6-5-4-3---4-5-6-7---6-5-4-3---8-7-6---7-6-5-4-3---4-5-6--|
|--------------------------------------------------------------------------------|
|--------------------------------------------------------------------------------|

MAIN THEME II (Dm)
  4 3 2 1      2 1 4 3 4    1 2 3 4     4 3 2    4 3 2 1     2 1 4 3 4    1 2 3 4 4 3
|-----------------------------------------------------------------------------|
|-----------------------------------------------------------------------------|
|-----------------------------------------------------------------------------|
|-7-6-5-4---5-4----------4-5-6-7---8-7-6---7-6-5-4---5-4---------4-5-6-7-8-7--|
|------------------8-7-8----------------------------------------8-7-8---------|
|-----------------------------------------------------------------------------|



BRIDGE
  1 2    1 3    12     2 3      1 2 3 2     1 2 3      1 2 3  2 3   2 3  4 3 2      1 2   1 3    1 2    1 3      1 2 3  2 1 2 3
|------------------------------------------------------------------------------------------------------------------|
|------------------------------------------------------------------------------------------------------------------|
|---------------------------------------------------5h6h7r6r5-6h7h8r7r6----------------(6h7)(6h8)---6-7-8-7-6-7-8--|
|(6h7)(6h8)(6h7)(6h8)---6-7-8-7---6-7-8----------------------------------------------------------------------------|
|--------------------------------------------------------------------------------(4h5)(4h6)------------------------|
|------------------------------------------------------------------------------------------------------------------|

   1 2  3 2  1  2 3    4 3 2 1 1      4 3 2 1 1 2  4 3 4     1 2 3 4     1 2 3
|------------------------------------------------------------------------|
|-6h7h8r7r6h7h8----------------------------------------------------------|
|----------------------7-6-5-4-3---8-7-6-5-4-5----------4-5-6-7---6-7-8--|
|---------------------------------------------------8-7-8----------------|
|------------------------------------------------------------------------|
|------------------------------------------------------------------------|

   T 3 2 1     T 3 2 1     T 3 2 1    4 3 2 1      3 4  3  2 3      4 3 2 1      4 3 2 1     3 2 1      4 3 2 1
|------------------------------------------------------------------------------------------------------------------|
|------------------------------------------------------------------------------------------------------------------|
|--9-8-7-6---7-6-5-4---5-4-3-2-------------------------------------------------------------------------------------|
|--------------------------------------6-5-4-3---------------------------------------------------------------------|
|--------------------------------------------------(7h8r7r6h7)---7-6-5-4---5-4-3-2---3-2-1-0-----------------------|
|-------------------------------------------------------------------------------------------------------4-3-2-1-0--|

    1 2 1     1          1 2 3 4        1 2 3 4        1 2    1 2 3 4      3 2 1 1 2       1 2 3 4      1 2 3 4
|--------------------------------------------------------------------------------------------------------|
|--------------------------------------------------------------------------------------------------------|
|-----------------------------------------------------------------------------------0-1-2-3-4---5-6-7-8--|
|-----------------------------------------------0-1-2---3-4-5-6---5-4-3-2-4------------------------------|
|---------------------------------0-1-2-3-4--------------------------------------------------------------|
|-(1h2r1r0h1)---0-1-2-3-4--------------------------------------------------------------------------------|

MAIN THEME I (Am)
  4 3 2 1 1       4 3 2     4 3 2 1 1      2 3 4     4 3 2 1 1      4 3 2     4 3 2 1 1      2 3 4
|----------------------------------------------------------------------------------|
|----------------------------------------------------------------------------------|
|-9-8-7-6-5---10-9-8---9-8-7-6-5---6-7-8---9-8-7-6-5---10-9-8---9-8-7-6-5---6-7-8--|
|----------------------------------------------------------------------------------|
|----------------------------------------------------------------------------------|
|----------------------------------------------------------------------------------|

MAIN THEME II (Am)
   4 3 2 1    2 1 4  3  4       1 2 3 4   4 3 2      4 3 2 1     2 1 4  3  4     1 2 3 4     1 2 3
|--------------------------------------------------------------------------------------------------|
|-------------------------------------------------------------------------------------------7-8-9--|
|-9-8-7-6---7-6-------------6-7-8-9-10-9-8---9-8-7-6---7-6------------6-7-8-9----------------------|
|-----------------10-9-10----------------------------------------10-9-10---------------------------|
|--------------------------------------------------------------------------------------------------|
|--------------------------------------------------------------------------------------------------|

MAIN THEME I (Dm)
   4   3 2 1 1      4   3 2      4  3  2 1 1     1 2 3      4   3 2 1 1        4  3  2       4   3 2 1 1
|-----------------------------------------------------------------------------------|
|-10-9-8-7-6---11-10-9---10-9-8-7-6----7-8-9---10-9-8-7-6-----11-10-9---10-9-8-7-6--|
|-----------------------------------------------------------------------------------|
|-----------------------------------------------------------------------------------|
|-----------------------------------------------------------------------------------|
|-----------------------------------------------------------------------------------|

MAIN THEME II (Dm)
   4   3 2 1    2 1 4  3  4      1 2 3  4    4   3  2      4  3 2 1     2 1 4 3  4       1 2   3   4      1  2  3
|----------------------------------------------------------------------------------------------------9-10-11--|
|-10-9-8-7---8-7------------7-8-9-10-11-10-9---10-9-8-7---8-7------------9-10-11-12---------------------------|
|------------------10-9-10--------------------------------------------10-9-10---------------------------------|
|-------------------------------------------------------------------------------------------------------------|
|-------------------------------------------------------------------------------------------------------------|
|-------------------------------------------------------------------------------------------------------------|

MAIN THEME I (Am)
   4   3    2  1 1      4   3   2      4   3   2   1  1    2  3   4   4
|-12-11-10-9-8---13-12-11---12-11-10-9-8---9-10-11-12--|
|------------------------------------------------------|
|------------------------------------------------------|
|------------------------------------------------------|
|------------------------------------------------------|
|------------------------------------------------------|

OUTRO
   3  4    1  2  3        4  3  2  1        4 3 2 1      1 2 3 4  4       1 2 3 4     4   3 2 4      4 3 2 3
|---------------------------------------------------------------------------------------------------|
|---------------------------------------------------------------------------------------------------|
|--------------------------------------------------------------------6-7-8-9---10-9-8-9---10-9-8-9--|
|---------9-10-11---12-11-10-9---10-9-8-7---6-7-8-9-10----------------------------------------------|
|-12-13---------------------------------------------------------------------------------------------|
|---------------------------------------------------------------------------------------------------|

    3  4    1  2  3        4  3  2  1        4 3 2 1      1 2 3 4  4       1 2 3 4     4   3 2 3     1  2    3   4
|------------------------------------------------------------------------------------------------------|
|------------------------------------------------------------------------------------------------------|
|--------------------------------------------------------------------6-7-8-9---10-9-8-9---10-11-12-13--|
|---------9-10-11---12-11-10-9---10-9-8-7---6-7-8-9-10-------------------------------------------------|
|-12-13------------------------------------------------------------------------------------------------|
|------------------------------------------------------------------------------------------------------|

   T    3   2   1      T   3    2  1     T 3 2 1      4  3  2  1      4  3  2  1       4  3  2 1     4 3 2 1     4 3 2 1
|-----------------------------------------------------------------------------------------------------------|
|-----------------------------------------------------------------------------------------------------------|
|-14-13-12-11---12-11-10-9---10-9-8-7-----------------------------------------------------------------------|
|-------------------------------------------------11-10-9-8-------------------------------------------------|
|----------------------------------------------------------------12-11-10-9---10-9-8-7---8-7-6-5---6-5-4-3--|
|-----------------------------------------------------------------------------------------------------------|

  3 4 3 2     3 4 3 2     3 4 3 2 3      1 2 3 4    1 2 3 4     2 3 2 1     2 3 2 1 2     1 2 3 4
|----------------------------------------------------------------------------------------------|
|----------------------------------------------------------------------------------------------|
|----------------------------------------------------------------------------------------------|
|---------------------------------------------------------------2-3-2-1---2-3-2-1-2---3-4-5-6--|
|---------------------------------------------------3-4-5-6------------------------------------|
|-5-6-5-4---5-6-5-4---5-6-5-4-5---4-5-6-7------------------------------------------------------|

  4 3 2 1     4 3 2 1     4 3 2 1     2 3 1     1 2  3 4      1 2  3 4     1 2 3 4     1 2 3 4  4
|---------------------------------------------------------------------------------------------------|
|---------------------------------------------------------------------------------------------------|
|-------------------------------------------------------------------------------------5-6-7-8-9-----|
|-7-6-5-4---------------------------------------------------------------6-7-8-9------------------2--|
|-------------7-6-5-4--------------------------------------7-8-9-10-----------------------------2---|
|-------------------------7-6-5-4---5-6-7---8-9-10-11-----------------------------------------0-----|
Добавлено: 12.08.2013
Другие материалы по этой песне:
  • Аккорды и текст

Страница создана 12.08.2013
http://primanota.ru/manowar/flight-of-the-bumble-bee-chords.htm
Привет, Гость.
Предлагаем пройти революционный курс по гитаре.
Подарок от PrimaNota.Ru, забирай!