PrimaNota.ru - самый крупный в мире бесплатный архив песенных текстов, аккордов, табулатур и нот


Mann Friday - The Girl With A Thousand Faces - таба, видео

Регистрация Запомнить меня
Войти через:  Facebook Google Twitter Vk Yandex Mail.ru

Mann Friday - The Girl With A Thousand Faces - таба, видео

Печатать
Просмотров: 71
11-10-13 Updated the lyrics thanks to Mann Friday, they send me the official
lyrics!

Live Version is played with capo on 1st fred!
http://www.youtube.com/watch?v=pbyp308q1XU


p: Pulloff


Intro
E-----------------|-----------------|-----------------|-----------------|
B-----1-----------|------------1----|------------1----|-----------------|
G----------2------|-----0-----------|-----2-----------|-----------------|
D-----------------|-----------------|--3--------------|---0---0---------|
A--0--------------|--2--------------|-----------------|--3---2----------|
E-----------------|-----------------|-----------------|-----------------|

E-----------------|-----------------|-----------------|---0---0---0-----|
B-----1-----------|------------1----|------------1----|-----------------|
G----------2------|-----0-----------|-----2-----------|-----------------|
D-----------------|-----------------|--3--------------|-----------------|
A--0--------------|--2--------------|-----------------|-----------------|
E-----------------|-----------------|-----------------|-----------------|




Verse 1


      If she's got one, she's got a thousand faces for the sun 


E-----------------|-----------------|-----------------|-----------------|
B-----1-----------|------------1----|------------1----|-----------------|
G----------2------|-----0-----------|-----2-----------|-----------------|
D-----------------|-----------------|--3--------------|---0---0---------|
A--0--------------|--2--------------|-----------------|--3---2----------|
E-----------------|-----------------|-----------------|-----------------|

to shine upon, but not for me
E-----------------|-----------------|-----------------|--0--0--0--0-----|
B-----1-----------|------------1----|------------1----|-----------------|
G----------2------|-----0-----------|-----2-----------|-----------------|
D-----------------|-----------------|--3--------------|-----------------|
A--0--------------|--2--------------|-----------------|-----------------|
E-----------------|-----------------|-----------------|-----------------|

If you knew, the smiles that she kept from me and you  
E-----------------|-----------------|-----------------|-----------------|
B-----1-----------|------------1----|------------1----|-----------------|
G----------2------|-----0-----------|-----2-----------|-----------------|
D-----------------|-----------------|--3--------------|---0---0---------|
A--0--------------|--2--------------|-----------------|--3---2----------|
E-----------------|-----------------|-----------------|-----------------|

those turns she took we couldn’t see.
E-----------------|-----------------|-----------------|--0--0--0--0-----|
B-----1-----------|------------1----|------------1----|-----------------|
G----------2------|-----0-----------|-----2-----------|-----------------|
D-----------------|-----------------|--3--------------|-----------------|
A--0--------------|--2--------------|-----------------|-----------------|
E-----------------|-----------------|-----------------|-----------------|

Then you've got no way to say, our bodies are same 
E-----------------|-----------------|-----------------|-----------------|
B-----1-----------|------------1----|------------1----|-----------------|
G----------2------|-----0-----------|-----2-----------|-----------------|
D-----------------|-----------------|--3--------------|---0---0---------|
A--0--------------|--2--------------|-----------------|--3---2----------|
E-----------------|-----------------|-----------------|-----------------|

since she faced away.
E-----------------|-----------------|-----------------|--0--0--0--0-----|
B-----1-----------|------------1----|------------1----|-----------------|
G----------2------|-----0-----------|-----2-----------|-----------------|
D-----------------|-----------------|--3--------------|-----------------|
A--0--------------|--2--------------|-----------------|-----------------|
E-----------------|-----------------|-----------------|-----------------|

And you hold your hand and stand by the broken baby grand 
E-----------------|-----------------|-----------------|-----------------|
B-----1-----------|------------1----|------------1----|-----------------|
G----------2------|-----0-----------|-----2-----------|-----------------|
D-----------------|-----------------|--3--------------|---0---0---------|
A--0--------------|--2--------------|-----------------|--3---2----------|
E-----------------|-----------------|-----------------|-----------------|

that she played when you were here
E-----------------|-----------------|-----------------|--0--0--0--0-----|
B-----1-----------|------------1----|------------1----|-----------------|
G----------2------|-----0-----------|-----2-----------|-----------------|
D-----------------|-----------------|--3--------------|-----------------|
A--0--------------|--2--------------|-----------------|-----------------|
E-----------------|-----------------|-----------------|-----------------|

Verse 2 

 If she's got one, she's got a thousand tears to tumble 

E-----------------|-----------------|-----------------|-----------------|
B-----1-----------|------------1----|------------1----|-----------------|
G----------2------|-----0-----------|-----2-----------|-----------------|
D-----------------|-----------------|--3--------------|---0---0---------|
A--0--------------|--2--------------|-----------------|--3---2----------|
E-----------------|-----------------|-----------------|-----------------

|down her troubled frown, but not for me.
E-----------------|-----------------|-----------------|--0--0--0--0-----|
B-----1-----------|------------1----|------------1----|-----------------|
G----------2------|-----0-----------|-----2-----------|-----------------|
D-----------------|-----------------|--3--------------|-----------------|
A--0--------------|--2--------------|-----------------|-----------------|
E-----------------|-----------------|-----------------|-----------------|

And if you read the letters that she bleeds for you and me 
E-----------------|-----------------|-----------------|-----------------|
B-----1-----------|------------1----|------------1----|-----------------|
G----------2------|-----0-----------|-----2-----------|-----------------|
D-----------------|-----------------|--3--------------|---0---0---------|
A--0--------------|--2--------------|-----------------|--3---2----------|
E-----------------|-----------------|-----------------|-----------------|

those rivers of her poetry.
E-----------------|-----------------|-----------------|--0--0--0--0-----|
B-----1-----------|------------1----|------------1----|-----------------|
G----------2------|-----0-----------|-----2-----------|-----------------|
D-----------------|-----------------|--3--------------|-----------------|
A--0--------------|--2--------------|-----------------|-----------------|
E-----------------|-----------------|-----------------|-----------------|

Then you've got no way to say our heavy hearts can 
E-----------------|-----------------|-----------------|-----------------|
B-----1-----------|------------1----|------------1----|-----------------|
G----------2------|-----0-----------|-----2-----------|-----------------|
D-----------------|-----------------|--3--------------|---0---0---------|
A--0--------------|--2--------------|-----------------|--3---2----------|
E-----------------|-----------------|-----------------|-----------------|

hear another beat of yesterday.
E-----------------|-----------------|-----------------|--0--0--0--0-----|
B-----1-----------|------------1----|------------1----|-----------------|
G----------2------|-----0-----------|-----2-----------|-----------------|
D-----------------|-----------------|--3--------------|-----------------|
A--0--------------|--2--------------|-----------------|-----------------|
E-----------------|-----------------|-----------------|-----------------|

And you hold your head instead by the battered books 
E-----------------|-----------------|-----------------|-----------------|
B-----1-----------|------------1----|------------1----|-----------------|
G----------2------|-----0-----------|-----2-----------|-----------------|
D-----------------|-----------------|--3--------------|---0---0---------|
A--0--------------|--2--------------|-----------------|--3---2----------|
E-----------------|-----------------|-----------------|-----------------|

she read as she was lying next to me.
E-----------------|-----------------|-----------------|--0--0--0--0-----|
B-----1-----------|------------1----|------------1----|-----------------|
G----------2------|-----0-----------|-----2-----------|-----------------|
D-----------------|-----------------|--3--------------|-----------------|
A--0--------------|--2--------------|-----------------|-----------------|
E-----------------|-----------------|-----------------|-----------------|

Verse 3

If she's got one, she's got a thousand miles left to run 
E-----------------|-----------------|-----------------|-----------------|
B-----1-----------|------------1----|------------1----|-----------------|
G----------2------|-----0-----------|-----2-----------|-----------------|
D-----------------|-----------------|--3--------------|---0---0---------|
A--0--------------|--2--------------|-----------------|--3---2----------|
E-----------------|-----------------|-----------------|-----------------|

towards the young but not to me.
E-----------------|-----------------|-----------------|--0--0--0--0-----|
B-----1-----------|------------1----|------------1----|-----------------|
G----------2------|-----0-----------|-----2-----------|-----------------|
D-----------------|-----------------|--3--------------|-----------------|
A--0--------------|--2--------------|-----------------|-----------------|
E-----------------|-----------------|-----------------|-----------------|

If you knew, her coloured fists were bruising black and blue  
E-----------------|-----------------|-----------------|-----------------|
B-----1-----------|------------1----|------------1----|-----------------|
G----------2------|-----0-----------|-----2-----------|-----------------|
D-----------------|-----------------|--3--------------|---0---0---------|
A--0--------------|--2--------------|-----------------|--3---2----------|
E-----------------|-----------------|-----------------|-----------------|

those times it touched but couldn't see.
E-----------------|-----------------|-----------------|--0--0--0--0-----|
B-----1-----------|------------1----|------------1----|-----------------|
G----------2------|-----0-----------|-----2-----------|-----------------|
D-----------------|-----------------|--3--------------|-----------------|
A--0--------------|--2--------------|-----------------|-----------------|
E-----------------|-----------------|-----------------|-----------------|

And you've got now way to say our sullen souls 
E-----------------|-----------------|-----------------|-----------------|
B-----1-----------|------------1----|------------1----|-----------------|
G----------2------|-----0-----------|-----2-----------|-----------------|
D-----------------|-----------------|--3--------------|---0---0---------|
A--0--------------|--2--------------|-----------------|--3---2----------|
E-----------------|-----------------|-----------------|-----------------|

can hear another sound just disappear.
E-----------------|-----------------|-----------------|--0--0--0--0-----|
B-----1-----------|------------1----|------------1----|-----------------|
G----------2------|-----0-----------|-----2-----------|-----------------|
D-----------------|-----------------|--3--------------|-----------------|
A--0--------------|--2--------------|-----------------|-----------------|
E-----------------|-----------------|-----------------|-----------------|

And you hold your love above the rising watermark 
E-----------------|-----------------|-----------------|-----------------|
B-----1-----------|------------1----|------------1----|-----------------|
G----------2------|-----0-----------|-----2-----------|-----------------|
D-----------------|-----------------|--3--------------|---0---0---------|
A--0--------------|--2--------------|-----------------|--3---2----------|
E-----------------|-----------------|-----------------|-----------------|

of the different lives we lived instead.    
E-----------------|-----------------|-----------------|--0--0--0--0-----|
B-----1-----------|------------1----|------------1----|-----------------|
G----------2------|-----0-----------|-----2-----------|-----------------|
D-----------------|-----------------|--3--------------|-----------------|
A--0--------------|--2--------------|-----------------|-----------------|
E-----------------|-----------------|-----------------|-----------------|

Outro

E-----------------|-----------------|-----------------|-----------------|
B-----1-----------|------------1----|------------1----|-----------------|
G----------2------|-----0-----------|-----2-----------|-----------------|
D-----------------|-----------------|--3--------------|---0---0---------|
A--0--------------|--2--------------|-----------------|--3---2----------|
E-----------------|-----------------|-----------------|-----------------|

E-----------------|-----------------|-----------------|--0--0--0--0-----|
B-----1-----------|------------1----|------------1----|-----------------|
G----------2------|-----0-----------|-----2-----------|-----------------|
D-----------------|-----------------|--3--------------|-----------------|
A--0--------------|--2--------------|-----------------|-----------------|
E-----------------|-----------------|-----------------|-----------------|

E-----------------|-----------------|-----------------|-----------------|
B-----1-----------|------------1----|------------1----|-----------------|
G----------2------|-----0-----------|-----2-----------|-----------------|
D-----------------|-----------------|--3--------------|---0---0---------|
A--0--------------|--2--------------|-----------------|--3---2----------|
E-----------------|-----------------|-----------------|-----------------|

E-----------------|-----------------|-----------------|-----------------|
B-----1-----------|------------1----|------------1----|-----------------|
G----------2------|-----0-----------|-----2-----------|-----------------|
D-----------------|-----------------|--3--------------|3-3-3-3-3-3-3-3p2|
A--0--------------|--2--------------|-----------------|-----------------|
E-----------------|-----------------|-----------------|-----------------|

strum it once at the end

E-0
B-1
G-2
D-3
A-0
E-0
Добавлено: 10.09.2013
Другие материалы по этой песне:
  • Аккорды и текст

Страница создана 10.09.2013
http://primanota.ru/mann-friday/the-girl-with-a-thousand-faces-chords.htm
Привет, Гость.
Предлагаем пройти революционный курс по гитаре.
Подарок от PrimaNota.Ru, забирай!