PrimaNota.ru - самый крупный в мире бесплатный архив песенных текстов, аккордов, табулатур и нот


Manisharma - Cheliya Cheliya - таба, видео

Регистрация Запомнить меня
Войти через:  Facebook Google Twitter Vk Yandex Mail.ru

Manisharma - Cheliya Cheliya - таба, видео

Печатать
Просмотров: 143
Уроки эстрадного вокала в Санкт-Петербурге
-------------------------------------------------------------------------------
                             Cheliya Cheliya - Mani Sharma
-------------------------------------------------------------------------------
Tabbed by: musiclover
E-mail: musiclover9333@gmail.com

Tuning: Standard

e|---------------------------------------------------------------------------|
B|-----------------5---------------------------------------------------------|
G|---------------------------------------------------------------------------|
D|----------------------------------7--------------------5-------------------|
A|------5-----7-----------5---7------------5---7-----------------------------|
E|---------------------------------------------------------------------------|

e|---------------------------------------------------------------------------|
B|-----------------5---------------------------------------------------------|
G|---------------------------------------------------------------------------|
D|----------------------------------7--------------------4-------------------|
A|------5-----7-----------5---7------------5---7-----------------------------|
E|---------------------------------------------------------------------------|

Добавлено: 10.04.2016
Другие материалы по этой песне:
  • Аккорды и текст

Страница создана 10.04.2016
http://primanota.ru/manisharma/cheliya-cheliya-chords.htm
Привет, Гость.
Предлагаем пройти революционный курс по гитаре.
Подарок от PrimaNota.Ru, забирай!