PrimaNota.ru - самый крупный в мире бесплатный архив песенных текстов, аккордов, табулатур и нот


Manic Street Preachers - Underdogs - текст песни, таба, видео

Регистрация Запомнить меня
Войти через:  Facebook Google Twitter Vk Yandex Mail.ru

Manic Street Preachers - Underdogs - текст песни, таба, видео

Печатать
Просмотров: 178
This is a new Manics song, hope it's ok!

PM, standard tuning


Verse

e-----------------------------------------------------------------|
B-----------------------------------------------------------------|
G-----------------------------------------------------------------|
D-----------------------------------------------------------------| x6
A-8-8-8-8-8-7-5-3-3-3-3-3-3-3-3-2-7-7-7-7-7-7-7-5-5-5-5-5-5-7-7-7-|
E-6-6-6-6-6-5-3-1-1-1-1-1-1-1-1-0-5-5-5-5-5-5-5-3-3-3-3-3-3-5-5-5-|


Then

e---------------------------------|
B---------------------------------|
G---------------------------------|
D---------------------------------| 
A-3-3-3-3-3-3-3-3-3-3-3-3-3-3-3-3-|
E-1-1-1-1-1-1-1-1-1-1-1-1-1-1-1-1-|


Chorus
(Distorted)

e-----------------------------------------------------------------| 
B-----------------------------------------------------------------|
G-----------------------------------------------------------------|
D-777--------------3------------3-5------5--------3-3-33-3--3-333-| 
A-777--------------3------------3-5------5--------3-3-33-3—-3-333-|
E-555--------------1------------1-3------3--------1-1-11-1—-1-111-|


e-----------------------------------------------------------------| 
B-----------------------------------------------------------------|
G-3-3-33-3-33-333-8-8-88-8-88-888-7-7-7-7-7-7-7-7-7-7-7-7-7-7-7-7-|
D-3-3-33-3-33-333-8-8-88-8-88-888-7-7-7-7-7-7-7-7-7-7-7-7-7-7-7-7-| 
A-1-1-11-1-11-111-6-6-66-6-66-666-5-5-5-5-5-5-5-5-5-5-5-5-5-5-5-5-|
E-------------------------------------------------------------—---|
                                 \_______________________________/

                                             Guitar 2 plays

e-9b10-9b10-9b10-9b10-9b10-9b10-9b10-9b10-9b10-9b10-9b10-9b10-9b10-| 
B------------------------------------------------------------------|
G------------------------------------------------------------------|
D------------------------------------------------------------------| 
A------------------------------------------------------------------|
E------------------------------------------------------------------|


Verse

Chorus

After second chorus
e---------------------------------------------------------------| 
B---------------------------------------------------------------|
G---------------------------------------------------------------|
D-8-8-8-8-8-7-5-3-3-3-3-3-3-3-3-7-7-7-7-7-7-7-5-5-5-5-5-5-7-7-7-|
A-8-8-8-8-8-7-5-3-3-3-3-3-3-3-3-7-7-7-7-7-7-7-5-5-5-5-5-5-7-7-7-|
E-6-6-6-6-6-5-3-1-1-1-1-1-1-1-1-5-5-5-5-5-5-5-3-3-3-3-3-3-5-5-5-|
                           \___________________________________/
                                        
                                      Guitar 2 plays

e--------------------------------| 
B--------------------------------|
G--------------------------------|
D-------------3202------0--------|
A--------------------------------|
E--------------------------------|

 This one is for the freaks


End with

e-1--------------111--------------111--------------111| 
B-1--------------111--------------111--------------111|
G-2--------------222--------------222--------------222|
D-3--------------333--------------333--------------333|
A-3--------------333--------------333--------------333|
E-1--------------111--------------111--------------111|


Lyrics (95% correct)

This one is for the freaks,
For you're so beautiful,
For all the devotion,
Ridden in your soul.

This one is for the freaks,
For the lost and weak,
For the butterflies and the devotees
And the disciples of our destiny.

And like the underdogs we are,
Shining bright but not disappeared,
And like the underdogs we are,
Dancing like ??Sid Vicious???
Like Sid Vicious??

This one is for the freaks,
The beaten down and crushed,
The shy and withdrawn,
Or, just out of touch.

May you stay like freaks,
May you make mistakes,
May your will never break,
For underdogs revenge is sweet, revenge is sweet.

And like the underdogs we are,
Shining bright but not disappeared,
And like the underdogs we are,
Dancing like Sid Vicious
Like Sid Vicious

This one is for the freaks
This one is for the freaks
People like you need to f**k
Need to fuck people like me
This one is for the freaks
For the lost and weak,
This one's for the freaks.
Добавлено: 28.07.2012
Другие материалы по этой песне:

Страница создана 29.02.2012
http://primanota.ru/manic-street-preachers/underdogs-chords.htm
Привет, Гость.
Предлагаем пройти революционный курс по гитаре.
Подарок от PrimaNota.Ru, забирай!