PrimaNota.ru - самый крупный в мире бесплатный архив песенных текстов, аккордов, табулатур и нот


Manic Street Preachers - Take The Skinheads Bowling - текст песни, таба, видео

Регистрация Запомнить меня
Войти через:  Facebook Google Twitter Vk Yandex Mail.ru

Manic Street Preachers - Take The Skinheads Bowling - текст песни, таба, видео

Печатать
Просмотров: 105


---------------------------------------------------------
     SONG NAME -TAKE THE SKINHEADS BOWLING
---------------------------------------------------------
Tabbed by:  ALSIBOP
Email:  alan@wylie3405.freeserve.co.uk

Tuning:  standard




C          F                     C   F
Every day, I get up and pray to Jah
C                               F                  C   F
And he decreases the number of clocks by exactly one
C                   F                    C   F
Everybody's comin' home for lunch these days
C                      F               C  F
Last night there were skinheads on my Lawn


G                  F
Take the skinheads bowling
           C
Take them bowling
G                   F
Take the skinheads bowling
           C
Take them bowling



e|---------------------------------------------------------------------------|
B|---------------------------------------------------------------------------|
G|-----5---------5---------5---------5---------------------------------------|
D|--5-7-7-5-5-5-7-7-5-5-5-7-7-5-5-5-7-7b-8-7-5-------------------------------|
A|-7-------7-8-------7-7-------7-8-------------------------------------------|
E|---------------------------------------------------------------------------|

Some people say that bowling alleys got big lanes
Some people say that bowling alleys all look the same



e|-----------------------------------------------------------------------------|
B|-----------------------------------------------------------------------------|
G|--------17----------------17----------------17----------------17-------------|
D|---17-19--19-17--17--17-19--19-17--17--17-19--19-17--17--17-19--19b-20-19-17-|
A|-19------------19--20------------19--19------------19--20--------------------|
E|-----------------------------------------------------------------------------|

There's not a line that goes here that rhymes with anything
I has a dream last night, but I forget what it was


G                  F
Take the skinheads bowling
           C
Take them bowling
G                   F
Take the skinheads bowling
           C
Take them bowling




e|---------------------------------------------------------------------------|
B|---------------------------------------------------------------------------|
G|-----5---------5---------5---------5---------------------------------------|
D|--5-7-7-5-5-5-7-7-5-5-5-7-7-5-5-5-7-7b-8-7-5-------------------------------|
A|-7-------7-8-------7-7-------7-8-------------------------------------------|
E|---------------------------------------------------------------------------|

I had a dream last night about you, my friend
I had a dream--I wanted to sleep next to plastic




e|-----------------------------------------------------------------------------|
B|-----------------------------------------------------------------------------|
G|--------17----------------17----------------17----------------17-------------|
D|---17-19--19-17--17--17-19--19-17--17--17-19--19-17--17--17-19--19b-20-19-17-|
A|-19------------19--20------------19--19------------19--20--------------------|
E|-----------------------------------------------------------------------------|

I had a dream--I wanted to lick your knees
I had a dream--it was about nothing







G                  F
Take the skinheads bowling
           C
Take them bowling
G                   F
Take the skinheads bowling
           C
Take them bowling




Добавлено: 26.12.2013
Другие материалы по этой песне:
  • Аккорды и текст

Страница создана 16.03.2012
http://primanota.ru/manic-street-preachers/take-the-skinheads-bowling-chords.htm
Привет, Гость.
Предлагаем пройти революционный курс по гитаре.
Подарок от PrimaNota.Ru, забирай!