PrimaNota.ru - самый крупный в мире бесплатный архив песенных текстов, аккордов, табулатур и нот


Manic Street Preachers - Pedestal - аккорды и текст, видео

Регистрация Запомнить меня
Войти через:  Facebook Google Twitter Vk Yandex Mail.ru

Manic Street Preachers - Pedestal - аккорды и текст, видео

Печатать
Просмотров: 65
Pedestal
Manic Street Preachers
Manic Street Preachers
Pedestal
B-Side to G Why G Sad


Transcribed by Barry McGrath

I sent this in to  a while ago, but I've realised since that it had some errors, so here it is, done correctly.

Chords:

  F7M    Em   G  F#m  F#  E    A   Ab  
e|--x----x----3---2---2---0----5---4--|
B|-10----8----3---2---2---0----5---4--|
G|--9----9----4---2---3---1----6---5--|
D|-10----9----5---4---4---2----7---6--|
A|--8----7----5---4---4---2----7---6--|
E|--x----x----3---2---2---0----5---4--|


Rift 1 (used at the end of Nick's backing vocals at the bridge)  

e|-------------------------------|
B|-------------------------------|
G|-----9---11--11b12r11----9--|
D|-11----------------------------|
A|-------------------------------|
E|-------------------------------|



Intro:
=====
F7M  , Em

Verse:
=====
               F7M  
I put you on...
                      Em
I look at you...
               F7M  
I put you...
               Em
I feel ok ...

Repeat

Bridge:
======
F7M                      Em
Willing to be...
                            (Willing to be...) Riff 1
F7M                          Em
Willing to live...
                            (Willing to live...) Riff 1
F7M              Em
Put you on...
                    (Put you on...) Riff 1
F7M                         Em
Put you there...
                                 (Put you...) Riff 1

Chorus:
======

  A
e|------5------5-----5------|
B|------5------5-----5------|
G|------6------6-----6------|
D|-7------7-------7---------|
A|-7------7-------7---------|
E|-5------5-------5---------|




G      F#            F#m           E
Pedestal, put you ...
    G        F#                F#m    E  
You make me feel...
Ab                    G   
Pedestal, ...
    G        F#                F#m    E
You make me feel...

Verse x2

Chorus x2
     
Добавлено: 08.06.2013
Другие материалы по этой песне:
  • Аккорды и текст

Страница создана 08.06.2013
http://primanota.ru/manic-street-preachers/pedestal-chords.htm
Привет, Гость.
Предлагаем пройти революционный курс по гитаре.
Подарок от PrimaNota.Ru, забирай!