PrimaNota.ru - самый крупный в мире бесплатный архив песенных текстов, аккордов, табулатур и нот


Manic Street Preachers - Interiors - аккорды и текст, таба, бас-таба, видео

Регистрация Запомнить меня
Войти через:  Facebook Google Twitter Vk Yandex Mail.ru

Manic Street Preachers - Interiors - аккорды и текст, таба, бас-таба, видео

Печатать
Просмотров: 148
Interiors
Manic Street Preachers
Manic Street Preachers
Interiors (song for Willem de Kooning)
Tabbed by Weasel-boy
Verse (X4)
G----------------|----------------|----------------|----------------|
D-4-0-2-4---4---|4-4-0-2-4---4---|----------------|----------------|
A----------------|----------------|2-2---0-2---2---|2-2---0-2---2---|
E----------------|----------------|----4-----------|----4-----------|
 
Bridge
G----------------|----------------|----------------|----------------|
D----------------|0000000000000000|2222222222222222|2/4-------------|
A4444444444444444|----------------|----------------|---5/7-4-4/9--|
E----------------|----------------|----------------|----------------|
 
Chorus (X2)
G----------------|----------------|----------------|----------------|
D----------------|----------------|----------------|----------------|
A5---5---55555555|----------------|5---5---55555555|----------------|
E----------------|5---5---55555555|----------------|5---5---55555555|
 
Solo
G----------------|----------------|----------------|----------------|
D0000000000000000|----------------|----------------|----------------|
A----------------|4444444444444444|0000000000000000|----------------|
E----------------|----------------|----------------|0000000000000000|
 
This is how I play it.  It may not be completely accurate.
Listen to the album to get it right.
If you have any questions or suggestions e-mail me @
weasel-boy@anonymous.to 
Добавлено: 11.04.2012
Другие материалы по этой песне:
  • Аккорды и текст

Страница создана 17.03.2012
http://primanota.ru/manic-street-preachers/interiors-chords.htm
Привет, Гость.
Предлагаем пройти революционный курс по гитаре.
Подарок от PrimaNota.Ru, забирай!