PrimaNota.ru - самый крупный в мире бесплатный архив песенных текстов, аккордов, табулатур и нот


Manic Street Preachers - All Is Vanity - текст песни, таба, видео

Регистрация Запомнить меня
Войти через:  Facebook Google Twitter Vk Yandex Mail.ru

Manic Street Preachers - All Is Vanity - текст песни, таба, видео

Печатать
Просмотров: 175
Уроки эстрадного вокала в Санкт-Петербурге
Авторы музыки: Sean Moore, James Dean Bradfield
Авторы текста: Richey James Edwards
-------------------------------------------------------------------------------
			     All Is Vanity - Manic Street Preachers
-------------------------------------------------------------------------------
Tabbed by: yonico12344
Email: yonico12344@walla.com

Tuning: Standard

Credit to "Backfire" from the Manics forum for most of the song.


Capo in 1st Fret


Intro:

e|-------0---------0--------0----2--0----------------0---------0--------0----------------0-|
B|-----4---------4--------4------------4-----------4---------4--------4----4-----------4---|
G|---2---------2--------2-----------------2------6---------6--------6---------6-----6------|
D|-4---------4--------4--------4-------------6-6---------6--------6--------------6---------|
A|-----------------------------------------------------------------------------------------|
E|-----------------------------------------------------------------------------------------|

e|-------0---------0----2-0--------2-0--------2-0-----------0---------0--------------------|
B|-----4---------4----------4----------4----------4-------4---------4----------------------|
G|---2---------2--------------2----------2----------2---6---------6-------/6—4-------------|
D|-4---------4--------4----------4----------4---------6---------6----------------6--4--2-1-|
A|-----------------------------------------------------------------------------------------|
E|-----------------------------------------------------------------------------------------|

e|--------------------------------------------------------------|
B|--------------------------------------------------------------|
G|--------------------------------------------------------------|
D|-----4-----4--------4-----4---------4-----4--------4----4-----|
A|--------------------------------------------------------------|
E|-4-4---4-4----4-4-4---4-4---4-2-0-0---0-0----0-0-0---0-0--0-4-|

e|----------------------------------------------------------------|
B|----------------------------------------------------------------|
G|----------------------------------------------------------------|
D|-----4-----4--------4-----4---4-----4-----4--------4------2-1---|
A|-0-0---0-0----0-0-0---0-0---0------------------2-2----2-2-----2-|
E|--------------------------------4-4---4-4----4------------------|

Verse:

e|--------------------------------------------------------------|
B|--------------------------------------------------------------|
G|--------------------------------------------------------------|
D|-----4-----4--------4-----4---------4-----4--------4----4-----|
A|--------------------------------------------------------------|
E|-4-4---4-4----4-4-4---4-4---4-2-0-0---0-0----0-0-0---0-0--0-4-|

e|----------------------------------------------------------------|
B|----------------------------------------------------------------|
G|----------------------------------------------------------------|
D|-----4-----4--------4-----4---4-----4-----4--------4------2-1---|
A|-0-0---0-0----0-0-0---0-0---0------------------2-2----2-2-----2-|
E|--------------------------------4-4---4-4----4------------------|


Chorus: C#5  G#5  C#5  A5  E5  B5  A5  A5


Solo:

e|-----------------------------------------------------------------------------------------------|
B|-----------------------------------------------------------------------------------------------|
G|-/13--13131313-11-----/13--131313-11-----------------------------------------------------------|
D|------------------13-----------------13---11--b13r11b13r11-9---9--b11r9b11r9-6--/9-9-9-7p6h7p6-|
A|-----------------------------------------------------------------------------------------------|
E|-----------------------------------------------------------------------------------------------|

e|----------------------------------------------------|
B|----------------------------------------------------|
G|----------------------------------------------------|
D|-/9-9-9-7p6h7p6--/7-6-7p6---------------------------|
A|-------------------------9p7-9p7p6----------7p6h7p6-|
E|----------------------------------9p7-9-7h9---------|


Ending Last Chorus:

e|---------------------------------------------------------------------------------|
B|---------------------------------------------------------------------------------|
G|-/88888888-8-9-6\2---/88888888-8-9-6\2---/88888888-8-9-6\2---/88888888-8-9-6\2-8-|
D|---------------------------------------------------------------------------------|
A|---------------------------------------------------------------------------------|
E|---------------------------------------------------------------------------------|


| /  slide up
| \  slide down
| h  hammer-on
| p  pull-off
| ~  vibrato
| +  harmonic
| x  Mute note
===============================================================================
Добавлено: 17.07.2013
Другие материалы по этой песне:
  • Аккорды и текст

Страница создана 17.07.2013
http://primanota.ru/manic-street-preachers/all-is-vanity-chords.htm
Привет, Гость.
Предлагаем пройти революционный курс по гитаре.
Подарок от PrimaNota.Ru, забирай!