PrimaNota.ru - самый крупный в мире бесплатный архив песенных текстов, аккордов, табулатур и нот


Manhattan Project - Elemental Theory - таба, видео

Регистрация Запомнить меня
Войти через:  Facebook Google Twitter Vk Yandex Mail.ru

Manhattan Project - Elemental Theory - таба, видео

Печатать
Просмотров: 124
The Manhattan Project
The Elemental Theory
Music and lyrics by Travis Lausch

Riff A (Intro/Chorus)

Gtr. 1 (acous.)
||--------0-----0----|----0-----0----||
||----------3-----3--|------3-----3--||
||o-6:---------------|--------------o||
||o-8:--0-----0------|--3-----2-----o||
||-------------------|---------------||
||-------------------|---------------||
       | | | | | |     | | | | | | 
       ----- -----     ----- -----

Riff B (Verse)

|--0--0-0-0--0--0-0-0--||--0---0-0-0--0--0-0-0--||
|--3--3-3-3--3--3-3-3--||--1h3-3-3-3--3--3-3-3--||
|--2--2-2-2--2--2-2-2--||o-2---2-2-2--2--2-2-2-o||
|--0--0-0-0--0--0-0-0--||o-0---0-0-0--0--0-0-0-o||
|----------------------||-----------------------||
|----------------------||-----------------------||
   |  |_| |  |  |_| |      |   |_| |  |  |_| | 
   --------  --------      ---------  --------

Riff C (Bridge)

||----------------------|----------------------||
||----------------------|----------------------||
||o-2--2-2-2------------|---------------------o||
||o-2--2-2-2--5--5-5-5--|--5--5-5-5--5--5-5-5-o||
||--0--0-0-0--5--5-5-5--|--5--5-5-5--5--5-5-5--||
||------------3--3-3-3--|--3--3-3-3--3--3-3-3--||
    |  |_| |  |  |_| |     |  |_| |  |  |_| | 
    --------  --------     --------  --------

Riff D (Solo Rhythm)

Gtr. 2 (elec. w/dist.)
||--2--2-2-2--2--2-2-2--|--2--2-2-2--0--0--0--||
||--3--3-3-3--3--3-3-3--|--3--3-3-3--2--2--2--||
||--4--4-4-4--4--4-4-4--|--4--4-4-4--2--2--2--||
||--4--4-4-4--4--4-4-4--|--4--4-4-4--2--2--2--||
||--2--2-2-2--2--2-2-2--|--2--2-2-2--0--0--0--||
||----------------------|---------------------||
    |  |_| |  |  |_| |     |  |_| |  |  |  |
    --------  --------     --------  -------

Solo (no rhythm included)
                                                             x4
|-----------------------------------------||-----------------||
|----------------12p9---------------------||-----------------||
|--6--7--9--9b11------11r9-9---9-9-9-7-6--||o-7-6-----------o||
|-----------------------------------------||o-----7-7/9~~~~-o||
|-----------------------------------------||-----------------||
|-----------------------------------------||-----------------||

Riff E (Outro)
Gtr 1 (acous.)                                Gtr 3 (w/slide
                                                  (.)
|--0--0-0-0--0--0-0-0--|--0--0-0-0--0--0-0-0--|--------------||
|--3--3-3-3--3--3-3-3--|--3--3-3-3--3--3-3-3--|--3/7---------||
|--2--2-2-2--2--2-2-2--|--2--2-2-2--2--2-2-2--|--3/7---------||
|--0--0-0-0--0--0-0-0--|--0--0-0-0--0--0-0-0--|--------------||
|----------------------|----------------------|--------------||
|----------------------|----------------------|--------------||
   |  |_| |  |  |_| |     |  |_| |  |  |_| |     
   --------  --------     --------  --------     + |.

notation legend:

|--------------------------------------------------------|
|--------------------------------------------------------|
|---9------9----9-----9----------9------9------9-----9---|
|--------------------------------------------------------|
|--------------------------------------------------------|
|--------------------------------------------------------|
                |     |          |______|======|    
           |    |     --------------------------     +
  whole half quarter eighth sixteenth thirtysecond grace
Добавлено: 12.07.2012
Другие материалы по этой песне:
  • Аккорды и текст

Страница создана 12.07.2012
http://primanota.ru/manhattan-project/elemental-theory-chords.htm
Привет, Гость.
Предлагаем пройти революционный курс по гитаре.
Подарок от PrimaNota.Ru, забирай!