PrimaNota.ru - самый крупный в мире бесплатный архив песенных текстов, аккордов, табулатур и нот


Manhack - Jonesy Christ - таба, видео

Регистрация Запомнить меня
Войти через:  Facebook Google Twitter Vk Yandex Mail.ru

Manhack - Jonesy Christ - таба, видео

Печатать
Просмотров: 100
Уроки эстрадного вокала в Санкт-Петербурге
Artist: Manhack
Song: Jonesy Christ
Album: Dominicide

Drop A Tuning


*  = Palm Mute
/  = Slide
b  = Bend
~  = Vibrato/Ring out
h  = Hammer on
p  = Pull off
t  = Tap
.  = Staccato
=  = Tremolo pick
() = Carry over

(rhythm) - guitar right, stage left



     1x
B |-------------------------------------------------------------------
Gb|-------------------------------------------------------------------
D |-------------------------------------------------------------------
A |--3-4-7-3-4-7-3-4-7-3-4-7-8-8-8-8-3-4-7-3-4-7-3-4-7-3-4-7-8-8-8-8--
E |--3-4-7-3-4-7-3-4-7-3-4-7-8-8-8-8-3-4-7-3-4-7-3-4-7-3-4-7-8-8-8-8--
A |--3-4-7-3-4-7-3-4-7-3-4-7-8-8-8-8-3-4-7-3-4-7-3-4-7-3-4-7-8-8-8-8--
     * *   * *   * *   * *           * *   * *   * *   * *

     1x
B |-------------------------------------------------------------------------------------------------------------
Gb|-------------------------------------------------------------------------------------------------------------
D |-------------------------------------------------------------------------------------------------------------
A |-------------------------------------------------------------------------------------------------------------
E |--9----8----8--8--8--8--8---7--7-7-7-7-7-7-7-7-7-7-7-7-9---8---8--8--8--8--8----7---7-7-7-7-7-7-7-7-7-7-7-7--
A |--11---10---10-10-10-10-10--9--9-9-9-9-9-9-9-9-9-9-9-9-11--10--10-10-10-10-10---9---9-9-9-9-9-9-9-9-9-9-9-9--
  |            *  *  *  *         * * * *   * * * * * * *          *  *  *  *          * * * *   * * * * * * *
  |
  |  bass (consistent picking throughout)
D |---------------------------------------------------------------------------
A |---------------------------------------------------------------------------
E |--9-9-8-8-8-8-8-8-8-8-7-7-7-7-7-7-7-7-9-9-8-8-8-8-8-8-8-8-7-7-7-7-7-7-7-7--
A |---------------------------------------------------------------------------


     1x
B |-------------------------------------------------------------------
Gb|-------------------------------------------------------------------
D |-------------------------------------------------------------------
A |--3-4-7-3-4-7-3-4-7-3-4-7-8-8-8-8-3-4-7-3-4-7-3-4-7-3-4-7-8-8-8-8--
E |--3-4-7-3-4-7-3-4-7-3-4-7-8-8-8-8-3-4-7-3-4-7-3-4-7-3-4-7-8-8-8-8--
A |--3-4-7-3-4-7-3-4-7-3-4-7-8-8-8-8-3-4-7-3-4-7-3-4-7-3-4-7-8-8-8-8--
     * *   * *   * *   * *           * *   * *   * *   * *

     1x
B |----------------------------------------------------------------------------------------------------
Gb|----------------------------------------------------------------------------------------------------
D |----------------------------------------------------------------------------------------------------
A |----------------------------------------------------------------------------------------------------
E |--9----8----8--8--8--8--8----7---7-7-7-7-7-7-7-7-7-7-7-7-9----8----8--8--8--8--8----7---7-7-7-7-7b--
A |--11---10---10-10-10-10-10---9---9-9-9-9-9-9-9-9-9-9-9-9-11---10---10-10-10-10-10---5---5-5-5-5-5b--
  |            *  *  *  *           * * * *   * * * * * * *           *  *  *  *           * * * *     
  |  
  |  bass (consistent picking throughout)
D |-------------------------------------------------------------------------
A |-------------------------------------------------------------------------
E |--9-9-8-8-8-8-8-8-8-8-7-7-7-7-7-7-7-7-9-9-8-8-8-8-8-8-8-8----------------
A |----------------------------------------------------------5--5-5-5-5-5b--


     1x bass only, sound clip
D |-------------------------------------------------------------------
A |-------------------------------------------------------------------
E |-------------------------------------------------------------------
A |--3-4-7-3-4-7-3-4-7-3-4-7-8-8-8-8-3-4-7-3-4-7-3-4-7-3-4-7-8-8-8-8--
 

     1x
B |---------------------------------------------------------------------------
Gb|---------------------------------------------------------------------------
D |---------------------------------------------------------------------------
A |---------------------------------------------------------------------------
E |--9--8------------8---7---------------9---8-----------8---7-----------12\--
A |--11-10-----------10--9---------------11--10----------10--9-----------12\--
  |  
  |                  
  |  bass (consistent picking throughout)
D |-------------------------------------------------------------------------------
A |-------------------------------------------------------------------------------
E |--9-9-8-8-8-8-8-8-8-8-7-7-7-7-7-7-7-7-9-9-8-8-8-8-8-8-8-8-7-7-7-7-7-7-7-7------
A |--------------------------------------------------------------------------12\--


     1x
B |-------------------------------------------------------------------
Gb|-------------------------------------------------------------------
D |-------------------------------------------------------------------
A |--1-2-5-1-2-5-1-2-5-1-2-5-6-6-6-6-1-2-5-1-2-5-1-2-5-1-2-5-6-6-6-6--
E |--1-2-5-1-2-5-1-2-5-1-2-5-6-6-6-6-1-2-5-1-2-5-1-2-5-1-2-5-6-6-6-6--
A |--1-2-5-1-2-5-1-2-5-1-2-5-6-6-6-6-1-2-5-1-2-5-1-2-5-1-2-5-6-6-6-6--
     * * * * * * * * * * * *         * * * * * * * * * * * *

     1x
B |----------------------------------------------------------------------
Gb|----------------------------------------------------------------------
D |----------------------------------------------------------------------
A |----------------------------------------------------------------------
E |--9--8------------8---7---------------9---8-----------8---7---7-7-8b--
A |--11-10-----------10--9---------------11--10----------10--5---5-5-6b--
  |                                                              * *
  |                                                             
  |  bass (consistent picking throughout)
D |----------------------------------------------------------------------
A |----------------------------------------------------------------------
E |--9-9-8-8-8-8-8-8-8-8-7-7-7-7-7-7-7-7-9-9-8-8-8-8-8-8-8-8-------------
A |----------------------------------------------------------5---5-5-6b--


     1x
C |------------------------------------------------------------------------------
Gb|------------------------------------------------------------------------------
D |------------------------------------------------------------------------------
A |--1-0-0-0---0---0-0-------------1-0-0-0---0-----0-0-------------1-0-0-0-------
E |--1-0-0-0---0---0-0-----\2--\2--1-0-0-0---0-----0-0-----\2--\2--1-0-0-0-------
A |--1-0-0-0---0---0-0-----\3--\3--1-0-0-0---0-----0-0-----\3--\3--1-0-0-0-------
         * *   *   * *                 * *   *     * *                 * *   


C |--------------------------------------------------
Gb|--------------------------------------------------
D |--------------------------------------------------
A |--0-0-------------1-0-0-0---0-----0-0-------------
E |--0-0-----\2--\2--1-0-0-0---0-----0-0-----\2--\2--
A |--0-0-----\3--\3--1-0-0-0---0-----0-0-----\3--\3--

     1x
B |---------------------------------
Gb|---------------------------------
D |---------------------------------
A |--------------------------8---3--
E |--------------------------8---3--
A |--3-4-7-3-4-7-3-4-7-3-4-7-8---3--
     
     
     1x
C |-------------------------------------------------------------------
Gb|-------------------------------------------------------------------
D |-------------------------------------------------------------------
A |--1-0-0-0-------------------------1-0-0-0--------------------------
E |--1-0-0-0-----------------\2--\2--1-0-0-0--------------0-0-\2--\2--
A |--1-0-0-0-----------------\3--\3--1-0-0-0--------------0-0-\3--\3--
         * *                             * *              * *

     1x
B |---------------------------------
Gb|---------------------------------
D |---------------------------------
A |--------------------------8---3--
E |--------------------------8---3--
A |--3-4-7-3-4-7-3-4-7-3-4-7-8---3--


     1x
B |---------------------------------------------------------------------------
Gb|---------------------------------------------------------------------------
D |---------------------------------------------------------------------------
A |---------------------------------------------------------------------------
E |--22222--2222222--2222222--2222222--2255555--5555555--5577777--7777777-77--
A |--22222--2222222--2222222--2222222--2255555--5555555--5577777--7777777-77--
     *****  *******  *******  *******  *******  *******  *******  ******* **

     1x
B |-------------------------------------------------------------------------
Gb|------------------------------------------------>->->->->->->->->->->->--
D |-------------------------------------------------------------------------
A |----------------------------------------5-5-5-5-5-5-5/7---7-7-7-7-7-7-7--
E |--22222~~2222222~~2222222~~2222222~~225-5-5-5-5-5-5-5/7---7-7-7-7-7-7-7--
A |--22222~~2222222~~2222222~~2222222~~225-5-5-5-5-5-5-5/7---7-7-7-7-7-7-7--
     *****  *******  *******  *******  *** * * * *


     build up
     1x
B |-------------------------------------------------------------------------------------------------------------
Gb|-------------------------------------------------------------------------------------------------------------
D |-------------------------------------------------------------------------------------------------------------
A |-------------------------------------------------------------------------------------------------------------
E |-----------------------------5-5-5-5-555555554-4-4-4-44444444---------------------------------5-5-5-5\4-4-4--
A |-----------------------------7-7-7-7-777777776-6-6-6-66666666---------------------------------7-7-7-7\6-6-6--
  |                                     ********        ********                                   * *     * *
  |
  |  bass
D |-------------------------------------------------------------------------------------------------------------
A |-------------------------------------------------------------------------------------------------------------
E |-----------------------------5-5-5-5-555555554-4-4-4-44444444---------------------------------5-5-5-5\4-4-4--
A |-------------------------------------------------------------------------------------------------------------


     2x
B |---------------------------------------------------------------------
Gb|---------------------------------------------------------------------
D |---------------------------------------------------------------------
A |--2-------1-0-----0--0-0---0-0-0-0-2-------1-0----0------------------
E |--2-------1-0-----0--0-0---0-0-0-0-2-------1-0----0---5-5-5-5\4-4-4--
A |--2-------1-0-----0--0-0---0-0-0-0-2-------1-0----0---7-7-7-7\6-6-6--
                     *  * *   * * * *                *     * *     * * 

     2x
B |-------------------------------------------------------------------
Gb|-------------------------------------------------------------------
D |-------------------------------------------------------------------
A |-------------------------------------------------------------------
E |--4\3-3-3---3-3---3-3-3---3-3-3-3-4\3-3-3---3-3---3\1-1-1-1-4-4-4--
A |--6\5-5-5---5-5---5-5-5---5-5-5-5-6\5-5-5---5-5---5\3-3-3-3-6-6-6--
  |      * *   * *   * * *   * * * *     * *   * *       * * *   * *
  |
  |  bass
D |-------------------------------------------------------------------
A |-------------------------------------------------------------------
E |--4\3-3-3---3-3---3-3-3---3-3-3-3-4-3-3-3---3-3---3-1-1-1-1-4-4-4--
A |-------------------------------------------------------------------


     1x
B |---------------------------------------------------------------------
Gb|---------------------------------------------------------------------
D |---------------------------------------------------------------------
A |--2---2---1-0-----0--0-0---0-0-0-0-2---2---1-0----0------------------
E |--2---2---1-0-----0--0-0---0-0-0-0-2---2---1-0----0---5-5-5-5\4-4-4--
A |--2---2---1-0-----0--0-0---0-0-0-0-2---2---1-0----0---7-7-7-7\6-6-6--
         *     *     *  * *   * * * *     *     *    *     * *     * * 

     1x
B |-------------------------------------------------------------------
Gb|-------------------------------------------------------------------
D |-------------------------------------------------------------------
A |-------------------------------------------------------------------
E |------------0---0-0---0---------------------0---0-0---0---0-4-4-4--
A |------------2---2-2---2---------------------2---2-2---2---0-6-6-6--
  |            *   * *   *                     *   * *   *   *
  |
  |  bass
D |-------------------------------------------------------------------
A |-------------------------------------------------------------------
E |--0---0-----0---0-0---0-----0---0-0---0-----0---0-0---0---0-4-4-4--
A |------------------------------------------------------------------


     1x
B |--------------------------------------------------------------------
Gb|--------------------------------------------------------------------
D |--------------------------------------------------------------------
A |--------------------------------------------------------------------
E |--4\3-3-3-3-3-3-3-3-3-3-3-3-3-3-3/4\3-3-3-3-3-3-3-7--5--4--5--2--1--
A |--6\5-5-5-5-5-5-5-5-5-5-5-5-5-5-5/6\5-5-5-5-5-5-5-7--5--4--5--2--1--
  |      *   * * *   * * *   * * *       *   * * * *    *  *     *  *
  |
  |  bass
D |--------------------------------------------------------------------
A |--------------------------------------------------------------------
E |--4\3-3-3-3-3-3-3-3-3-3-3-3-3-3-3-4\3-3-3-3-3-3-3-------------------
A |--------------------------------------------------7--5--4--5--2--1--


     4x
B |--------------------------------------------
Gb|--------------------------------------------
D |--------------------------------------------
A |--0---2---3---0---2---3---------------------
E |--0---2---3---0---2---3---------------------
A |--0---2---3---0---2---3---0--3b-3b-0-3b-3b--
     *   *   *   *   *   *   *        *
Добавлено: 07.05.2016
Другие материалы по этой песне:
  • Аккорды и текст

Страница создана 07.05.2016
http://primanota.ru/manhack/jonesy-christ-chords.htm
Привет, Гость.
Предлагаем пройти революционный курс по гитаре.
Подарок от PrimaNota.Ru, забирай!