PrimaNota.ru - самый крупный в мире бесплатный архив песенных текстов, аккордов, табулатур и нот


Manga - Dnyanin Sonunda Dogmusum - таба, видео

Регистрация Запомнить меня
Войти через:  Facebook Google Twitter Vk Yandex Mail.ru

Manga - Dnyanin Sonunda Dogmusum - таба, видео

Печатать
Просмотров: 146
Notes by RaidonTR. Guitar : D A D G B E
Notes have to be right, i tested is out by myself
www.youtube.com/raidontr
You have to look by yourself, how many times you have
to strum

0:14 - 0:29
-------------------------------------------------------|
-------------------------------------------------------|
-------------------------------------------------------|
--7----9--- 11-----11-----13----14----13----4----------|
--5----7---- 9------9-----11----12----11----4----------|
--------------------------------------------4----------|

0:30 - 0:58
-------------------------------------------------------|
-------------------------------------------------------|
-7-7--7s6---6-6--6s4-----------------------------------|
-------------------------------------------------------|
-------------------------------------------------------|
-------------------------------------------------------|

0:59 - 1:12
-------------------------------------------------------|
-------------------------------------------------------|
-7-----9----11----13-----14----------------------------|
-------------------------------------------------------|
-5-----7----9-----11-----12----------------------------|
-------------------------------------------------------|

1:14 - 1:27
-------------------------------------------------------|
-------------------------------------------------------|
-------------------------------------------------------|
----4----9----12----11---------------------------------|
----4----9----12----11---------------------------------|
----4----9----12----11---------------------------------|

1:27 - 1:43
-------------------------------------------------------|
-------------------------------------------------------|
-------------------------------------------------------|
--7----9--- 11-----11-----13----14----13----4----------|
--5----7---- 9------9-----11----12----11----4----------|
--------------------------------------------4----------|

1:44 - 2:04
-------------------------------------------------------|
-------------------------------------------------------|
-7-7--7s6---6-6--6s4-----------------------------------|
-------------------------------------------------------|
-------------------------------------------------------|
-------------------------------------------------------|

2:06 - 2:18
-------------------------------------------------------|
-------------------------------------------------------|
-------------------------------------------------------|
-4----4---4--4--4--4------0----0--0--0--0--0-----------|
-4----4---4--4--4--4------0----0--0--0--0--0-----------|
-4----4---4--4--4--4------0----0--0--0--0--0-----------|

2:20 - 2:33
-------------------------------------------------------|
-------------------------------------------------------|
-7-----9----11----13-----14----------------------------|
-------------------------------------------------------|
-5-----7----9-----11-----12----------------------------|
-------------------------------------------------------|

2:34 - 2:48
-------------------------------------------------------|
-------------------------------------------------------|
-------------------------------------------------------|
----4----9----12----11---------------------------------|
----4----9----12----11---------------------------------|
----4----9----12----11---------------------------------|

2:49 - 3:02
-------------------------------------------------------|
-------------------------------------------------------|
-------------------------------------------------------|
--7----9--- 11-----11-----13----14----13----4----------|
--5----7---- 9------9-----11----12----11----4----------|
--------------------------------------------4----------|

3:42 - 3:57
-------------------------------------------------------|
-------------------------------------------------------|
-------------------------------------------------------|
----4----9----12----11---------------------------------|
----4----9----12----11---------------------------------|
----4----9----12----11---------------------------------|

3:58 - 4:13
-------------------------------------------------------|
-------------------------------------------------------|
-------------------------------------------------------|
--7----9--- 11-----11-----13----14----13----4----------|
--5----7---- 9------9-----11----12----11----4----------|
--------------------------------------------4----------|
Добавлено: 03.07.2012
Другие материалы по этой песне:
  • Аккорды и текст

Страница создана 03.07.2012
http://primanota.ru/manga/dnyanin-sonunda-dogmusum-chords.htm
Привет, Гость.
Предлагаем пройти революционный курс по гитаре.
Подарок от PrimaNota.Ru, забирай!