PrimaNota.ru - самый крупный в мире бесплатный архив песенных текстов, аккордов, табулатур и нот


Manes - The Neoflagellata Revision - таба, видео

Регистрация Запомнить меня
Войти через:  Facebook Google Twitter Vk Yandex Mail.ru

Manes - The Neoflagellata Revision - таба, видео

Печатать
Просмотров: 179
Уроки эстрадного вокала в Санкт-Петербурге
Band/Song: Manes - The neoflagellata revision
Album: [View]
Official Website: http://www.manes.no

Tabbed by: RhoninX - http://profile.ultimate-guitar.com/RhoninX/
Email: lisekpl(a)o2.pl
Date: 10.11.2009

Tuning: D Tuning


Riff1
      W                    W                  
D||---------------------|--------------------|
A||---------------------|--------------------|
F||--10~----------------|--9~----------------|
C||---------------------|--------------------|
G||---------------------|--------------------|
D||---------------------|--------------------|


  W                    W                    
--------------------|----------------------|
--------------------|----------------------|
--6~----------------|--6brb----------------|
--------------------|----------------------|
--------------------|----------------------|
--------------------|----------------------|


Riff2 - Rhytm Guitar

  E  E  E  E  E  E  E  E     E  E  E  E  E  E  E  E   
--------------------------|--------------------------|
--------------------------|--------------------------|
--------------------------|--------------------------|
--7--x--7--x--7--x--7--x--|--7--x--7--x--7--x--5--x--|
--5--x--5--x--5--x--5--x--|--5--x--5--x--5--x--3--x--|
--------------------------|--------------------------|


  E  E  E  E  E  E  E  E     E  E  E  E  E  E  E  E   
--------------------------|--------------------------|
--------------------------|--------------------------|
--------------------------|--------------------------|
--------------------------|--------------------5--x--|
--6--x--6--x--6--x--6--x--|--6--x--6--x--6--x--3--x--|
--4--x--4--x--4--x--4--x--|--4--x--4--x--4--x--------|

Riff2 - Solo Guitar

  TP                   TP       TP    TP    
  W                    H        Q     Q     
-------------------|-----------------------|
-------------------|-----------------------|
--7----------------|--10--------9----10----|
-------------------|-----------------------|
-------------------|-----------------------|
-------------------|-----------------------|


   TP                  TP                
   W                   W                 
--------------------|-------------------|
--------------------|-------------------|
--13----------------|--8----------------|
--------------------|-------------------|
--------------------|-------------------|
--------------------|-------------------|


  TP                   TP       TP    TP    
  W                    H        Q     Q     
-------------------|-----------------------|
-------------------|-----------------------|
--7----------------|--10--------9----10----|
-------------------|-----------------------|
-------------------|-----------------------|
-------------------|-----------------------|


   TP                   TP                
   W                    W                 
--------------------|--------------------|
--------------------|--13----------------|
--13----------------|--------------------|
--------------------|--------------------|
--------------------|--------------------|
--------------------|--------------------|

Riff 3 - ending

  W                   H        E  E  Q     
-------------------|----------------------|
-------------------|----------------------|
-------------------|----------------------|
--7----------------|--L-------------------|
--5----------------|--L--------3--5--3----|
-------------------|----------------------|


  W                    W                   
-------------------|---------------------||
-------------------|---------------------||
-------------------|---------------------||
-------------------|---------------------||
--6----------------|--18\----------------||
--4----------------|--16\----------------||




Duration Legend
---------------
W - whole
H - half
Q - quarter
E - 8th


Tabulature Legend
----------------
L - tied note
brb - bendReleaseBend
~ - vibrato
\ -  pickslide
W - wide vibrato
TP - tremolo picking
Добавлено: 30.06.2012
Другие материалы по этой песне:
  • Аккорды и текст

Страница создана 30.06.2012
http://primanota.ru/manes/the-neoflagellata-revision-chords.htm
Привет, Гость.
Предлагаем пройти революционный курс по гитаре.
Подарок от PrimaNota.Ru, забирай!