PrimaNota.ru - самый крупный в мире бесплатный архив песенных текстов, аккордов, табулатур и нот


Manes - Death Of The Genuine - таба, видео

Регистрация Запомнить меня
Войти через:  Facebook Google Twitter Vk Yandex Mail.ru

Manes - Death Of The Genuine - таба, видео

Печатать
Просмотров: 125
Уроки эстрадного вокала в Санкт-Петербурге
Band/Song: Manes - Death Of The Genuine
Album: Vilosophe
Official Website: http://www.manes.no

Tabbed by: RhoninX - http://profile.ultimate-guitar.com/RhoninX/
Email: lisekpl(a)o2.pl
Date: 24.01.2009

Tuning: CGD#A#FC

                PM   PM PM PM   PM PM    PM   PM PM PM   PM PM  
                Q    E  E  Q    E  E     Q    E  E  Q    E  E   
C ||-------||-------------------------|------------------------|
G ||-------||-------------------------|------------------------|
D#||-------||*------------------------|------------------------|
A#||-------||*------------------------|------------------------|
F ||-------||---6----6--6--6----6--6--|--6----6--6--6----6--6--|
C ||-------||---4----4--4--4----4--4--|--4----4--4--4----4--4--|


  PM   PM PM PM   PM PM    PM   PM PM PM   NH        PM   PM PM PM   PM PM  
  Q    E  E  Q    E  E     Q    E  E  E    Q.        Q    E  E  Q    E  E   
------------------------|-------------------------|------------------------|
------------------------|-------------------------|------------------------|
------------------------|-------------------------|------------------------|
------------------------|----------------<>6------|------------------------|
--6----6--6--6----6--6--|--6----6--6--6-----------|--3----3--3--3----3--3--|
--4----4--4--4----4--4--|--4----4--4--4-----------|--1----1--1--1----1--1--|


  PM   PM PM PM   PM PM    PM   PM PM PM   PM PM    PM   PM PM PM   NH        
  Q    E  E  Q    E  E     Q    E  E  Q    E  E     Q    E  E  E    Q.      4x
------------------------|------------------------|--------------------------||
------------------------|------------------------|--------------------------||
------------------------|------------------------|-------------------------*||
------------------------|------------------------|----------------<>3------*||
--3----3--3--3----3--3--|--3----3--3--3----3--3--|--3----3--3--3------------||
--1----1--1--1----1--1--|--1----1--1--1----1--1--|--1----1--1--1------------||


   S S S S S S S S S S S S S S S S    S S S S S S S S S S S S S S S S  
-----------------------------------|----------------------------------|
-----------------------------------|----------------------------------|
*--8-8-8-8-8-8-8-8-8-8-8-8-8-8-8-8-|--8-8-8-8-8-8-8-8-8-8-8-8-8-8-8-8-|
*--6-6-6-6-6-6-6-6-6-6-6-6-6-6-6-6-|--6-6-6-6-6-6-6-6-6-6-6-6-6-6-6-6-|
-----------------------------------|----------------------------------|
-----------------------------------|----------------------------------|


  S S S S S S S S S S S S S S S S    S S S S S S S S S S S S S S  
----------------------------------|------------------------------|
----------------------------------|------------------------------|
--8-8-8-8-8-8-8-8-8-8-8-8-8-8-8-8-|--8-8-8-8-8-8-8-8-8-8-8-8-8-8-|
--6-6-6-6-6-6-6-6-6-6-6-6-6-6-6-6-|--6-6-6-6-6-6-6-6-6-6-6-6-6-6-|
----------------------------------|------------------------------|
----------------------------------|------------------------------|


  S S S S S S S S S S S S S S S S    S S S S S S S S S S S S S S S S  
----------------------------------|----------------------------------|
----------------------------------|----------------------------------|
--5-5-5-5-5-5-5-5-5-5-5-5-5-5-5-5-|--5-5-5-5-5-5-5-5-5-5-5-5-5-5-5-5-|
--3-3-3-3-3-3-3-3-3-3-3-3-3-3-3-3-|--3-3-3-3-3-3-3-3-3-3-3-3-3-3-3-3-|
----------------------------------|----------------------------------|
----------------------------------|----------------------------------|


  S S S S S S S S S S S S S S S S    S S S S S S S S S S S E.   6x
----------------------------------|-----------------------------||
----------------------------------|-----------------------------||
--5-5-5-5-5-5-5-5-5-5-5-5-5-5-5-5-|--5-5-5-5-5-5-5-5-5-5-5-----*||
--3-3-3-3-3-3-3-3-3-3-3-3-3-3-3-3-|--3-3-3-3-3-3-3-3-3-3-3-----*||
----------------------------------|-----------------------------||
----------------------------------|-----------------------------||


   E  S S S S E  S S S S    E  S S S S E  S S S S    E  S S S S E  S S S S  
-------------------------|------------------------|------------------------|
-------------------------|------------------------|------------------------|
*--5----------5----------|--5----------5----------|--5--6-------6--5-------|
*--6--6-6-6-6-6--6-6-6-6-|--6--6-6-6-6-6--6-6-6-6-|--6--6-6-6-6-6--6-6-6-6-|
-------------------------|------------------------|------------------------|
-------------------------|------------------------|------------------------|


  E  S S S S E  S S S S    E  S S S S E  S S S S    E  S S S S E  S S S S  
------------------------|------------------------|------------------------|
------------------------|------------------------|------------------------|
--5--8-------8--5-------|--5----------5----------|--5----------5----------|
--6--6-6-6-6-6--6-6-6-6-|--3--3-3-3-3-3--3-3-3-3-|--3--3-3-3-3-3--3-3-3-3-|
------------------------|------------------------|------------------------|
------------------------|------------------------|------------------------|


  E  S S S S E  S S S S    E  S S S S E  S S S S  4x
------------------------|-------------------------||
------------------------|-------------------------||
--5--6-------6--5-------|--5--8-------8--5-------*||
--3--3-3-3-3-3--3-3-3-3-|--3--3-3-3-3-3--3-3-3-3-*||
------------------------|-------------------------||
------------------------|-------------------------||


   S S S S S S S S S S S S S S S S    S S S S S S S S S S S S S S S S  
-----------------------------------|----------------------------------|
-----------------------------------|----------------------------------|
*--8-8-8-8-8-8-8-8-8-8-8-8-8-8-8-8-|--8-8-8-8-8-8-8-8-8-8-8-8-8-8-8-8-|
*--6-6-6-6-6-6-6-6-6-6-6-6-6-6-6-6-|--6-6-6-6-6-6-6-6-6-6-6-6-6-6-6-6-|
-----------------------------------|----------------------------------|
-----------------------------------|----------------------------------|


  S S S S S S S S S S S S S S S S    S S S S S S S S S S S S S S  
----------------------------------|------------------------------|
----------------------------------|------------------------------|
--8-8-8-8-8-8-8-8-8-8-8-8-8-8-8-8-|--8-8-8-8-8-8-8-8-8-8-8-8-8-8-|
--6-6-6-6-6-6-6-6-6-6-6-6-6-6-6-6-|--6-6-6-6-6-6-6-6-6-6-6-6-6-6-|
----------------------------------|------------------------------|
----------------------------------|------------------------------|


  S S S S S S S S S S S S S S S S    S S S S S S S S S S S S S S S S  
----------------------------------|----------------------------------|
----------------------------------|----------------------------------|
--5-5-5-5-5-5-5-5-5-5-5-5-5-5-5-5-|--5-5-5-5-5-5-5-5-5-5-5-5-5-5-5-5-|
--3-3-3-3-3-3-3-3-3-3-3-3-3-3-3-3-|--3-3-3-3-3-3-3-3-3-3-3-3-3-3-3-3-|
----------------------------------|----------------------------------|
----------------------------------|----------------------------------|


  S S S S S S S S S S S S S S S S    S S S S S S S S S S S E.   6x
----------------------------------|-----------------------------||
----------------------------------|-----------------------------||
--5-5-5-5-5-5-5-5-5-5-5-5-5-5-5-5-|--5-5-5-5-5-5-5-5-5-5-5-----*||
--3-3-3-3-3-3-3-3-3-3-3-3-3-3-3-3-|--3-3-3-3-3-3-3-3-3-3-3-----*||
----------------------------------|-----------------------------||
----------------------------------|-----------------------------||




Duration Legend
---------------
Q - quarter
E - 8th
S - 16th
. - note dotted


Tablature Legend
----------------
NH - natural harmonic
PM - palm mute
Добавлено: 17.07.2012
Другие материалы по этой песне:
  • Аккорды и текст

Страница создана 17.07.2012
http://primanota.ru/manes/death-of-the-genuine-chords.htm
Привет, Гость.
Предлагаем пройти революционный курс по гитаре.
Подарок от PrimaNota.Ru, забирай!