PrimaNota.ru - самый крупный в мире бесплатный архив песенных текстов, аккордов, табулатур и нот


Manegarm - Svunna Minnen - таба, видео

Регистрация Запомнить меня
Войти через:  Facebook Google Twitter Vk Yandex Mail.ru

Manegarm - Svunna Minnen - таба, видео

Печатать
Просмотров: 120
Уроки эстрадного вокала в Санкт-Петербурге
Авторы музыки: Erik Grawsiö, Jonas Almquist

----------------------------------------------------------------------------
                             SVUNNA MINNEN - Manegarm
----------------------------------------------------------------------------
Tabbed by:  Zach Rewald.
Email:

Tuning:  Standard (EADGBe)

Riff 1
e|----------------------------------------------------------------------|
B|----------------------------------------------------------------------|
G|----------------8--------------------8--------------------8-----------|
D|---------6--------------------6--------------------6------------------|
A|-----------------------7--------------------6--------------------4----|
E|--4-------------------------------------------------------------------|

e|-----------------|
B|-----------------|
G|---------6-------|
D|--4--------------|
A|-----------------|
E|-----------------|


Riff 2
e|---------------------------------------------------------------|
B|---------------------------------------------------------------|
G|---------------------------------------------------------------|
D|----------------9--------------------9--------------------9----|
A|---------7--------------------7--------------------7-----------|
E|--7--------------------7--------------------7------------------|

e|------------------------------------------------------------|
B|------------------------------------------------------------|
G|------------------------------------------------------------|
D|--11------9---------------------------11------13------11----|
A|-----------------9-------------9----------------------------|
E|------------------------9-----------------------------------|

e|-------------------------|
B|-------------------------|
G|-------------------------|
D|--------sweep------------|
A|--9--------9-------------|
E|---------9---------------|
             *

Riff 3
e|-------------------------------------------------------------------------|
B|-----------------------------------5-------------------------------------|
G|--8--6--4--6--4-----------4--6--8-----8--------6h8p6---4---6-------------|
D|-----------------8--6--8----------------------------------------8---6----|
A|----------------------------------------------------------------6--------|
E|-------------------------------------------------------------------------|
                                        *                             *

Riff 4
e|-----------------------------------------------------------------------|
B|--9--7-----7------------------------------------------------4----------|
G|--------8-----8--6--8--------6--4--3--------3h4p3-------4---1----------|
D|-----------------------------4--2--1--------1-------6---2-------6------|
A|----------------------------------------------------4-----------4------|
E|-----------------------------------------------------------------------|
                      *              *                            *


I'm not entirely sure about the lower notes of riffs 3 and 4 (notes under higher ones).  
corrections are welcome.

Riff order:
Riff 1 x 6
Riff 2 x 1
Riff 1 x 2
Riff 1 x 1  +  Riff 3 x 1
Riff 1 x 1
Riff 1 x 1  +  Riff 4 x 1
Riff 1 x 4  (Fades, ends during 4th)

| *  Held note
| /  slide up
| \  slide down
| h  hammer-on
| p  pull-off
| ~  vibrato
| +  harmonic
| x  Mute note
============================================================================
Добавлено: 05.03.2012
Другие материалы по этой песне:

Страница создана 05.03.2012
http://primanota.ru/manegarm/svunna-minnen-chords.htm
Привет, Гость.
Предлагаем пройти революционный курс по гитаре.
Подарок от PrimaNota.Ru, забирай!