PrimaNota.ru - самый крупный в мире бесплатный архив песенных текстов, аккордов, табулатур и нот


Mandy Morton And Spriguns - Magic Lady - таба, видео

Регистрация Запомнить меня
Войти через:  Facebook Google Twitter Vk Yandex Mail.ru

Mandy Morton And Spriguns - Magic Lady - таба, видео

Печатать
Просмотров: 124
Mandy Morton And Spriguns: Magic Lady intro
(Mandy Morton)
Transcribed by Jonas Juul (jonasjuul@hotmail.com)

>From "For You - A page made in memory of Mandy Morton"
http://www.geocities.com/fantasticmandy

Mandy sings the song so fast, so I've been forced to just write the primary 
words

e --0--0-0--0--0-0--0--0-0--0--0-0----------0--0-0--0--0-0--0--0-0--
B -0--0-0--0--0-0--0--0-0--0--0-0---0--0-0-0--0-0--0--0-0--0--0-0---
G ---------------------------------2--2-2--------------------------2
D 2--2----2--2----2--2----2--2----0--0----2--2----2--2----2--2----0-
A ------------------------------------------------------------------
E ------------------------------------------------------------------
                  One     lady    one for me      songs   land    song

e --------0--0-0--0--0-0--0--0-0----------0--0-0--0--0-0--0--0-0--------
B 0--0-0-0--0-0--0--0-0--0--0-0---0--0-0-0--0-0--0--0-0--0--0-0---0--0-0
G --2-2--------------------------2--2-2--------------------------2--2-2-
D -0----2--2----2--2----2--2----0--0----2--2----2--2----2--2----0--0----
A ----------------------------------------------------------------------
E ----------------------------------------------------------------------
  oo    sea     the     empty  decaying dust   silently remember lady
     
Добавлено: 04.10.2013
Вам также может быть интересно:
Другие материалы по этой песне:
  • Аккорды и текст

Страница создана 20.08.2013
http://primanota.ru/mandy-morton-and-spriguns/magic-lady-chords.htm
Привет, Гость.
Предлагаем пройти революционный курс по гитаре.
Подарок от PrimaNota.Ru, забирай!