PrimaNota.ru - самый крупный в мире бесплатный архив песенных текстов, аккордов, табулатур и нот


Mandy Morton And Spriguns - According To Matthew - таба, видео

Регистрация Запомнить меня
Войти через:  Facebook Google Twitter Vk Yandex Mail.ru

Mandy Morton And Spriguns - According To Matthew - таба, видео

Печатать
Просмотров: 76
Mandy Morton And Spriguns: According To Matthew
(Mandy Morton)
Transcribed by Jonas Juul (jonasjuul@hotmail.com)

>From "The Graeme Taylor Appreciation Page"
http://www.geocities.com/gtaylorpage

Mandy sings the song so fast, so I've been forced to just write the primary 
words.
* Here Mike plays his D on bass, which is one octave lower, you can play 
this if you mute your guitar E string one major second down to a D

e --0--0-0--0--0-0--0--0-0--0--0-0--0--0-0--0--0-0
B ------------------------------------------------
G -2--2-2--2--2-2--2--2-2--2--2-2--2--2-2--2--2-2-
D 0--0----0--0----0--0----0--0----0--0----0--0----
A ------------------------------------------------
E ------------------------------------------------
                                  eyes    and

e --0--0-0--0--0-0--0--0-0--0--0-0--0--0-0--0--0-0
B ------------------------------------------------
G -2--2-2--2--2-2--2--2-2--2--2-2--2--2-2--2--2-2-
D 0--0----0--0----0--0----0--0----0--0----0--0----
A ------------------------------------------------
E *-------------------------------*---------------
          floor  conjures pictures      before
     
Добавлено: 11.09.2013
Вам также может быть интересно:
Другие материалы по этой песне:
  • Аккорды и текст

Страница создана 11.09.2013
http://primanota.ru/mandy-morton-and-spriguns/according-to-matthew-chords.htm
Привет, Гость.
Предлагаем пройти революционный курс по гитаре.
Подарок от PrimaNota.Ru, забирай!