PrimaNota.ru - самый крупный в мире бесплатный архив песенных текстов, аккордов, табулатур и нот


Mandopony - Loyalty - таба, видео

Регистрация Запомнить меня
Войти через:  Facebook Google Twitter Vk Yandex Mail.ru

Mandopony - Loyalty - таба, видео

Печатать
Просмотров: 185
-------------------------------------------------------------------------------
                             Loyalty (Solo)- AcousticBrony & MandoPony
-------------------------------------------------------------------------------
Tabbed by: Shippo97
E-mail: ita.shippo97@gmail.com

Tuning: Standard

E|----------------------------------------------------------------------------------------|
B|----------------------------------------------------------------------------------------|
G|-------------------12-14-14b12-12-12-12-12-12-12h14p12----------------------------------|
D|-------------12-14-------------------------------------12-12-12-12h14p12----------------|
A|-------12-14-------------------------------------------------------------12-14-12\10-10-|
E|-12-15----------------------------------------------------------------------------------|

E|-------------------------------15-12----------------------------|
B|-------------------12-13-13-15-------15-12-15-12----------------|
G|-------------12-14-------------------------------14-12-13b12-12-|
D|-12-14-12-14----------------------------------------------------|
A|----------------------------------------------------------------|
E|----------------------------------------------------------------|

E|----------------------------------------------------------------------------------------|
B|----------------------------------------------------------------------------------------|
G|-------------------12-14-14b12-12-12-12-12-12-12h14p12----------------------------------|
D|-------------12-14-------------------------------------12-12-12-12h14p12----------------|
A|-------12-14-------------------------------------------------------------12-14-12\10-10-|
E|-12-15----------------------------------------------------------------------------------|

E|-------------------------------------------------------|
B|-------------------------------------------------------|
G|----12-12h14p12----12-12h14p12----12h14-12-14bbbbbbb12-|
D|-12-------------12-------------12----------------------|
A|-------------------------------------------------------|
E|-------------------------------------------------------|

E|----------------------------------------------------------------------------|
B|----------------------------------------------------------------------------|
G|-12-12-12-12-12-14-12-------12----------------------------------------------|
D|----------------------12-14----14-12-14-12----12----------------------------|
A|-------------------------------------------14----14-14-12-12-14-12-12\10-10-|
E|----------------------------------------------------------------------------|

E|----------------------------------------------------|
B|----------------------------------------------------|
G|----------------------------------------------------|
D|-------------12-------------------------------------|
A|-12-12-14-14----14-12-12-14p12-14p12-14p12\10-12-10\|
E|----------------------------------------------------|

E|--------------------------------------------------------------------------|
B|--------------------------------------------------------------------------|
G|--------------------------------------------------------------------------|
D|------------------------------------------12-14-14------------------------|
A|-7777999910101010121212121414141415151515---------------------------------|
E|--------------------------------------------------------------------------|

E|----------------------------------------------------------------|
B|-------------------------------------------------13-13-15-15-15-|
G|----------------------12----------12-------12-14----------------|
D|-12h14-12h14-12h14-14----14-12h14----14-14----------------------|
A|----------------------------------------------------------------|
E|----------------------------------------------------------------|

E|-15-12-----------------------------------------19b-19b|
B|-------15-15-12h15p12---------------------------------|
G|----------------------14-14---------------------------|
D|----------------------------12/14-12/14---------------|
A|------------------------------------------------------|
E|------------------------------------------------------|

Have fun to play this awesome song :)

************************************

| /   slide up
| \   slide down
| h   hammer-on
| p   pull-off
| ~   vibrato
| +   harmonic
| x   Mute note
| b   Bend
| pb  Pre-bend
| br  Bend release
| pbr Pre-bend release
| brb Bend release bend

************************************
Добавлено: 13.10.2015
Другие материалы по этой песне:
  • Аккорды и текст

Страница создана 13.10.2015
http://primanota.ru/mandopony/loyalty-chords.htm
Привет, Гость.
Предлагаем пройти революционный курс по гитаре.
Подарок от PrimaNota.Ru, забирай!