PrimaNota.ru - самый крупный в мире бесплатный архив песенных текстов, аккордов, табулатур и нот


Mandolin - The pogues thousands are sailing - таба, видео

Регистрация Запомнить меня
Войти через:  Facebook Google Twitter Vk Yandex Mail.ru

Mandolin - The pogues thousands are sailing - таба, видео

Печатать
Просмотров: 127


Song:  Thousands Are Sailing
Band:  The Pogues
Album: If I Should Fall From Grace With God

Tabbed by Jack Danny Daniels


PART A

  1 amp; 2 amp; 3 amp; 4 amp;
E|----------------|
A|----------------|
D|------------4-6-|
G|----------------|...

  1 amp; 2 amp; 3 amp; 4 amp;  1 amp; 2 amp; 3 amp; 4 amp;  1 amp; 2 amp; 3 amp; 4 amp;  1 amp; 2 amp; 3 amp; 4 amp;
E|----------------|----------------|----0-----------|----------------|
A|0-000-2-0-------|0-000-2-0-------|--------4---2---|2-222-4-2-------|
D|----------6-4-6-|----------6-4-1-|2-------------6-|----------6-4-6-|
G|----------------|----------------|----------------|----------------|


PART B

  1 amp; 2 amp; 3 amp; 4 amp;
E|----------------|
A|2-222-4-2-------|
D|----------6-4-4-|
G|----------------|...(from PART A to PART B)...

  1 amp; 2 amp; 3 amp; 4 amp;  1 amp; 2 amp; 3 amp; 4 amp;  1 amp; 2 amp; 3 amp; 4 amp;  1 amp; 2 amp; 3 amp; 4 amp;
E|--222-224-2-2-22|--2-2-224-2-2---|0---0---0-2-0---|----------------|
A|4---------------|4-------------6-|------6-------4-|2-4-2-----------|
D|----------------|----------------|----------------|------6-4-6-4-2-|
G|----------------|----------------|----------------|----------------|


PART C

  1 amp; 2 amp; 3 amp; 4 amp;  1 amp; 2 amp; 3 amp; 4 amp;  1 amp; 2 amp; 3 amp; 4 amp;  1 amp; 2 amp; 3 amp; 4 amp;
E|----------------|----------------|----------------|----------------|
A|--------0-------|--------0-------|0---4---2---4-2-|0-------0-------|
D|4-444-6---6-4-2-|4-444-6---6-4-6-|----------------|----6-----------|
G|----------------|----------------|----------------|----------------|





THE POGUES AND OTHER MANDOLIN TABS

http://theinternetlol.com/mandolin/


Добавлено: 03.12.2013
Вам также может быть интересно:
Другие материалы по этой песне:
  • Аккорды и текст

Страница создана 03.12.2013
http://primanota.ru/mandolin/the-pogues-thousands-are-sailing-chords.htm
Привет, Гость.
Предлагаем пройти революционный курс по гитаре.
Подарок от PrimaNota.Ru, забирай!