PrimaNota.ru - самый крупный в мире бесплатный архив песенных текстов, аккордов, табулатур и нот


Mandolin - The pogues south australia - таба, видео

Регистрация Запомнить меня
Войти через:  Facebook Google Twitter Vk Yandex Mail.ru

Mandolin - The pogues south australia - таба, видео

Печатать
Просмотров: 84


Song:  South Australia
Band:  The Pogues
Album: If I Should Fall From Grace With God

Tabbed by Jack Danny Daniels



INTRO

  4 amp;
E|----|
A|0---|
D|---5|
G|----|...

  1 amp; 2 amp; 3 amp; 4 amp;  1 amp; 2 amp; 3 amp; 4 amp;  1 amp; 2 amp; 3 amp; 4 amp;  1 amp; 2 amp; 3 amp; 4 amp;
E|----------------|----------------|----------------|----------------|
A|--0--0--2-5-0---|20--0---20--0---|--0-------------|--0-------------|
D|4-----0---------|--5-------5----5|4----54-2---0--5|4----54-2-4-0--5|
G|----------------|----------------|----------------|----------------|

  1 amp; 2 amp; 3 amp; 4 amp;  1 amp; 2 amp; 3 amp; 4 amp;  1 amp; 2 amp; 3 amp; 4 amp;  1 amp; 2 amp; 3 amp; 4 amp;
E|----------------|----------------|----------------|----------------|
A|--0--0--2-5-0---|20--0---20--0---|--0-------------|--0-------------|
D|4-----0---------|--5-------5----5|4----54-2-4-0--5|4----54-2---0---|
G|----------------|----------------|----------------|----------------|


PART B

  1 amp; 2 amp; 3 amp; 4 amp;  1 amp; 2 amp; 3 amp; 4 amp;  1 amp; 2 amp; 3 amp; 4 amp;  1 amp; 2 amp; 3 amp; 4 amp;  1 amp;
E|----------------|----------------|----------------|----------------|----|
A|----------------|----------------|----------------|----------------|----|
D|0-----7-5---7---|5---7---5---7---|2-0---7-5---7---|2-0---5-2-0-----|0---|
G|----------------|----------------|----------------|----------------|----|


PART C - INSTRUMENTAL

  1 amp; 2 amp; 3 amp; 4 amp;  1 amp; 2 amp; 3 amp; 4 amp;
E|----------------|--0-------------|
A|------------0-2-|4---2-4-0-------|
D|2---4---2-4-----|----------4-4-0-|
G|------6---------|----------------|


PART D - INSTRUMENTAL

  1 amp; 2 amp; 3 amp; 4 amp;  1 amp; 2 amp; 3 amp; 4 amp;
E|--0-0-----0-2---|----------------|
A|4-------4-------|4---2---0-------|
D|----------------|----------4-4---|
G|----------------|----------------|

  1 amp; 2 amp; 3 amp; 4 amp;  1 amp; 2 amp; 3 amp; 4 amp;
E|--0-0-----0-2-4-|5---4-5-2-----4-|
A|4-------5-------|----------------|
D|----------------|----------------|
G|----------------|----------------|

  1 amp; 2 amp; 3 amp; 4 amp;  1 amp; 2 amp; 3 amp; 4 amp;
E|5-2-4-0-2-0-----|--0-------------|
A|------------4-2-|4---2-4-0-------|
D|----------------|----------4-4-0-|
G|----------------|----------------|


ENDING

  1 amp; 2 amp; 3 amp; 4 amp;  1 amp; 2 amp; 3 amp; 4 amp;
E|----------------|--0---------5---|
A|------------0-2-|4---2-4-0---4---|
D|2---4---2-4-----|------------2---|
G|------6---------|------------2---|

                              (D)



## OPTIONAL, MORE DIFFICULT WAY OF PLAYING INSTRUMENTAL
## SOUNDS COOLER

PART C2 - INSTRUMENTAL

  1 amp; 2 amp; 3 amp; 4 amp;  1 amp; 2 amp; 3 amp; 4 amp;
E|----------------|--0-------------|
A|------------0-02|4---2-4-00------|
D|2---4---2-4-----|----------4-4-00|
G|------6---------|----------------|


PART D2 - INSTRUMENTAL

  1 amp; 2 amp; 3 amp; 4 amp;  1 amp; 2 amp; 3 amp; 4 amp;
E|--0-0-----0-2---|--0-------------|
A|4-------4-------|4---2-4-00------|
D|----------------|----------4-4---|
G|----------------|----------------|

  1 amp; 2 amp; 3 amp; 4 amp;  1 amp; 2 amp; 3 amp; 4 amp;
E|--0-0-----0-2-4-|5---4-5-2-----4-|
A|4-------5-------|----------------|
D|----------------|----------------|
G|----------------|----------------|

  1 amp; 2 amp; 3 amp; 4 amp;  1 amp; 2 amp; 3 amp; 4 amp;
E|5-2-4-0-2-0-----|--0-------------|
A|------------4-2-|4---2-4-00------|
D|----------------|----------4-4-00|
G|----------------|----------------|





THE POGUES AND OTHER MANDOLIN TABS

http://theinternetlol.com/mandolin/




Добавлено: 06.01.2014
Другие материалы по этой песне:
  • Аккорды и текст

Страница создана 06.01.2014
http://primanota.ru/mandolin/the-pogues-south-australia-chords.htm
Привет, Гость.
Предлагаем пройти революционный курс по гитаре.
Подарок от PrimaNota.Ru, забирай!