PrimaNota.ru - самый крупный в мире бесплатный архив песенных текстов, аккордов, табулатур и нот


Mandolin - The pogues medley - таба, видео

Регистрация Запомнить меня
Войти через:  Facebook Google Twitter Vk Yandex Mail.ru

Mandolin - The pogues medley - таба, видео

Печатать
Просмотров: 61


Song:  Medley: The Recruiting Sergeant/The Rocky Road to Dublin/The Galway Races
Band:  The Pogues
Album: If I Should Fall From Grace With God

Tabbed by Jack Danny Daniels


PART A - 1

  1 + + 4 + +
E|------------|
A|------------|
D|--------2-4-|
G|------------|...

  1 + + 4 + +  1 + + 4 + +  1 + + 4 + +  1 + + 4 + +
E|------------|------------|------------|------------|
A|------------|----------0-|2---2-2-0---|------------|
D|5---2-4-2-0-|2---4-5-----|----------5-|4---0-0-2-4-|
G|------------|------------|------------|------------|

  1 + + 4 + +  1 + + 4 + +  1 + + 4 + +  1 + + 4 + +
E|------------|------------|------------|------------|
A|------------|----------0-|2---5-5-2-0-|2-----------|
D|5---2-4-2-0-|2---4-5-----|------------|--5-2-2-----|
G|------------|------------|------------|------------|


PART A - 2

  1 + + 4 + +
E|------------|
A|--------2-4-|
D|------------|
G|------------|...

  1 + + 4 + +  1 + + 4 + +  1 + + 4 + +  1 + + 4 + +
E|------------|----0-0-----|------------|------------|
A|5---2-4-2-0-|2-------2-4-|5---5-2-0---|------------|
D|------------|------------|----------5-|4---0-0-2-4-|
G|------------|------------|------------|------------|

  1 + + 4 + +  1 + + 4 + +  1 + + 4 + +  1 + + 4 + +
E|------------|------------|------------|-----(0)*---|
A|------------|----------0-|2---5-5-2-0-|2-----------|
D|5---2-4-2-0-|2---4-5-----|------------|--5-2-2-----|
G|------------|------------|------------|------------|

*play the 0 instead of the 2, on the last time, right before PART B


PART B

  1 + + 4 + + 7 + +  1 + + 4 + + 7 + +  1 + + 4 + + 7 + +  1 + + 4 + + 7 + +
E|0-0-0-------------|------------------|0-3-0-------------|------------------|
A|------5-3-2-0-----|----0-0---0-2-3-5-|------5---3-0---3-|2---------0-2-3-5-|
D|------------------|2-----------------|------------------|----5-5-----------|
G|------------------|------------------|------------------|------------------|

  1 + + 4 + + 7 + +  1 + + 4 + + 7 + +  1 + + 4 + + 7 + +  1 + + 4 + + 7 + +
E|0-3-0-------------|------------------|0-3-0-------------|------------------|
A|------5---3-0-----|----0-0---0-2-3-5-|------5---3-0---3-|2---------0-2-3-5-|
D|------------------|2-----------------|------------------|----5-5-----------|
G|------------------|------------------|------------------|------------------|


  1 + + 4 + + 7 + +  1 + + 4 + + 7 + +  1 + + 4 + + 7 + +  1 + + 4 + + 7 + +
E|0---5-5-5-2-3-----|0---5-5-5-2-3-----|0---5-5-5-2-3---0-|------------------|
A|------------------|------------------|------------------|5---2-----0-2-3-5-|
D|------------------|------------------|------------------|------5-----------|
G|------------------|------------------|------------------|------------------|

  1 + + 4 + + 7 + +  1 + + 4 + + 7 + +  1 + + 4 + + 7 + +  1 + + 4 + + 7 + +
E|0---5-5-5-2-3-----|0---5-5-5-2-3-----|0---3-2---5-3---0-|------------------|
A|------------------|------------------|------------------|5---2-----0-2-3-5-|
D|------------------|------------------|------------------|------5-----------|
G|------------------|------------------|------------------|------------------|


PART C

  1 + + 4 + +  1 + + 4 + +  1 + + 4 + +  1 + + 4 + +
E|------------|------------|------------|------------|
A|----------0-|------------|----------0-|------------|
D|2---5-5-----|5---2-2---0-|2---5-5-----|5---2-2---0-|
G|------------|------------|------------|------------|

  1 + + 4 + +  1 + + 4 + +  1 + + 4 + +  1 + + 4 + +
E|------------|------------|------------|------------|
A|----0-0---2-|3---3-2---0-|----0-2---5-|3---3-3---5-|
D|2-----------|------------|5-----------|------------|
G|------------|------------|------------|------------|

  1 + + 4 + +  1 + + 4 + +  1 + + 4 + +  1 + + 4 + +
E|0---0-------|------------|------------|------------|
A|------5---3-|2---5-3---2-|0---3-2---0-|------------|
D|------------|------------|------------|5---2-2---0-|
G|------------|------------|------------|------------|

  1 + + 4 + +  1 + + 4 + +  1 + + 4 + +  1 + + 4 + +  1 +
E|------------|------------|------------|------------|0---|
A|----------0-|------------|----0-----2-|0---2-3---5-|----|
D|2---5-5-----|5---2-2---0-|2-----5-----|------------|----|
G|------------|------------|------------|------------|----|





THE POGUES AND OTHER MANDOLIN TABS

http://theinternetlol.com/mandolin/




Добавлено: 26.12.2013
Другие материалы по этой песне:
  • Аккорды и текст

Страница создана 26.12.2013
http://primanota.ru/mandolin/the-pogues-medley-chords.htm
Привет, Гость.
Предлагаем пройти революционный курс по гитаре.
Подарок от PrimaNota.Ru, забирай!