PrimaNota.ru - самый крупный в мире бесплатный архив песенных текстов, аккордов, табулатур и нот


Mandolin - The pogues battle march medley - таба, видео

Регистрация Запомнить меня
Войти через:  Facebook Google Twitter Vk Yandex Mail.ru

Mandolin - The pogues battle march medley - таба, видео

Печатать
Просмотров: 70
Уроки эстрадного вокала в Санкт-Петербурге


Song:  Battle March Medley
Band:  The Pogues
Album: If I Should Fall From Grace With God

Tabbed by Jack Danny Daniels

Originally tabbed by Bjart Sod, but edited in:
PART B
PART D
PART F
PART H


INTRO -   TREMELO TECHNIQUE  

E|--------------------------------------------|
A|--------------------------------------------|
D|-7-5-7-0-----7-5-7------7-5-7-0------0-2----|
G|-------------------5---------------5-----2--|


PART A

  1 amp; 2 amp;  1 amp; 2 amp;  1 amp; 2 amp;  1 amp; 2 amp;
E|--------|--------|--------|--------|
A|--------|--------|--------|--------|
D|----0---|2---2-4-|2-0-----|5---4-2-|
G|2-4-----|--------|----4-0-|--------|

  1 amp; 2 amp;  1 amp; 2 amp;  1 amp; 2 amp;  1 amp; 2 amp;
E|--------|--------|--------|--------|
A|--------|--------|--------|--------|
D|----0---|2-4-2---|0-------|------0-|
G|2-4-----|--------|------4-|0-2-4---|


PART B

  1 amp; 2 amp;  1 amp; 2 amp;  1 amp; 2 amp;  1 amp; 2 amp;
E|--------|--------|--------|--------|
A|----0---|0---0-2-|0-------|--------|
D|2-------|--------|--5-2-4-|5---2-0-|
G|--------|--------|--------|--------|

  1 amp; 2 amp;  1 amp; 2 amp;  1 amp; 2 amp;  1 amp; 2 amp;
E|--------|--------|--------|--------|
A|----0---|0-2-0---|--------|--------|
D|2-------|--------|5-----4-|0-2-4-5-|
G|--------|--------|--------|--------|

  1 amp; 2 amp;  1 amp; 2 amp;   1 amp; 2 amp;  1 amp; 2 amp;
E|--------|--------|--------|--------|
A|----0---|0---0-2-|0-------|--------|
D|2-------|--------|--5-2-4-|5---2-0-|
G|--------|--------|--------|--------|

  1 amp; 2 amp;  1 amp; 2 amp;  1 amp; 2 amp;  1 amp; 2 amp;
E|--------|--------|--------|--------|
A|----0---|0-2-0---|--------|--------|
D|2-------|--------|5-----4-|0-------|
G|--------|--------|--------|--------|

BACK INTO PART A

  1 amp; 2 amp;
E|--------|
A|--------|
D|5-4-2-0-|
G|--------|


PART C

  1 + + 4 + + 7 + +  1 + + 4 + + 7 + +
E|------------------|------------------|
A|0-----------------|0-----------2-4-5-|
D|----5-4-2-0-5-----|----5-4-2-0-------|
G|------------------|------------------|

  1 + + 4 + + 7 + +  1 + + 4 + + 7 + +
E|------------------|------------------|
A|0-----------------|0-0-0-0-----3-2-0-|
D|----5-4-2-0-5-----|--------5-4-------|
G|------------------|------------------|


PART D

  1 + + 4 + + 7 + +  1 + + 4 + + 7 + +
E|------------------|------------------|
A|------------------|------------------|
D|2---2-2-0-2-5---4-|2---2-2-0-2-0-----|
G|------------------|------------------|

  1 + + 4 + + 7 + +  1 + + 4 + + 7 + +
E|------------------|------------------|
A|------------------|------------------|
D|2---2-2-0-2-5---4-|0---5-5---4-5---4-|
G|------------------|------------------|


PART E

  1 + + 4 + +  1 + + 4 + +  1 + + 4 + +  1 + + 4 + +
E|------------|------------|------------|------------|
A|------------|------------|------------|------------|
D|----0-2-2-2-|2-0---5-4-2-|----0-2-4-2-|0-----------|
G|2-4---------|----4-------|2-4---------|--4-2-0-2-4-|

  1 + + 4 + +  1 + + 4 + +  1 + + 4 + +  1 + + 4 + +
E|------------|------------|------------|------------|
A|------------|------------|------------|------------|
D|----0-2-2-2-|2-0---5-4-2-|----0-2-4-2-|0-----------|
G|2-4---------|----4-------|2-4---------|--4-2-0-----|


PART F

  1 + + 4 + +  1 + + 4 + +  1 + + 4 + +  1 + + 4 + +
E|------------|------------|------------|------------|
A|--0-0-0-2-0-|------------|------0-2-0-|------------|
D|2-----------|5-2-4-5-2-0-|2-4-5-------|5-4-2-0-2-4-|
G|------------|------------|------------|------------|

  1 + + 4 + +  1 + + 4 + +  1 + + 4 + +  1 + + 4 + +
E|------------|------------|------------|------------|
A|--0-0-0-2-0-|------------|------0-2-0-|------------|
D|2-----------|5-2-4-5-2-0-|2-4-5-------|5-4-2-0-----|
G|------------|------------|------------|------------|


PART G

  1 + + 4 + +  1 + + 4 + +  1 + + 4 + +  1 + + 4 + +
E|------------|------------|------------|------------|
A|------------|------------|------------|------------|
D|0-2-4-5-2---|0-2-0-0-----|0-2-4-5-2---|0-2-0-0-----|
G|----------6-|------------|----------6-|------------|

  1 + + 4 + +  1 + + 4 + +  1 + + 4 + +  1 + + 4 + +
E|------------|------------|------------|------------|
A|------------|------------|------------|------------|
D|0-2-4-5-2-7-|5-2-0---0-2-|4-2-4-5-2---|0-2-0-0-----|
G|------------|------6-----|----------6-|------------|

  1 + + 4 + +  1 + + 4 + +  1 + + 4 + +  1 + + 4 + +
E|------------|------------|------------|------------|
A|------------|------------|------------|------------|
D|0-2-4-5-2---|0-2-0-0-----|0-2-4-5-2---|0-2-0-0-----|
G|----------6-|------------|----------6-|------------|

  1 + + 4 + +  1 + + 4 + +  1 + + 4 + +  1 + + 4 + +
E|------------|------------|------------|------------|
A|------------|------------|------------|------------|
D|0-2-4-5-2-7-|5-2-7-5-2-7-|5-2-0---0-2-|4-2-4-5-2---|
G|------------|------------|------6-----|----------6-|

  1 + + 4 + +
E|------------|
A|------------|
D|0-2-0-0-----|
G|------------|


PART H

  1 + + 4 + +  1 + + 4 + +  1 + + 4 + +  1 + + 4 + +
E|------------|------------|------------|------------|
A|------------|------------|----------0-|------------|
D|2---2-2-4-2-|0-----------|------0-2---|5-2---0-2-4-|
G|------------|--6-4-2-----|2-4-6-------|----6-------|

  1 + + 4 + +  1 + + 4 + +  1 + + 4 + +  1 + + 4 + +
E|------------|------------|------------|------------|
A|------------|------------|----------0-|------------|
D|2---2-2-4-2-|0-----------|------0-2---|5-2---0-----|
G|------------|--6-4-2-----|2-4-6-------|----6-------|


ENDING

  1 + + 4 + +  1 + + 4 + +
E|------------|------------|
A|------------|------------|
D|0-2-4-5-2---|0-2-0-0-----|
G|----------6-|------------|





THE POGUES AND OTHER MANDOLIN TABS

http://theinternetlol.com/mandolin/


Добавлено: 10.09.2013
Другие материалы по этой песне:
  • Аккорды и текст

Страница создана 10.09.2013
http://primanota.ru/mandolin/the-pogues-battle-march-medley-chords.htm
Привет, Гость.
Предлагаем пройти революционный курс по гитаре.
Подарок от PrimaNota.Ru, забирай!