PrimaNota.ru - самый крупный в мире бесплатный архив песенных текстов, аккордов, табулатур и нот


Mandolin - The dubliners king of the fairies - таба, видео

Регистрация Запомнить меня
Войти через:  Facebook Google Twitter Vk Yandex Mail.ru

Mandolin - The dubliners king of the fairies - таба, видео

Печатать
Просмотров: 74


Song:  King of the Fairies
Band:  The Dubliners
Album: Irelands Finest

Tabbed by Jack Danny Daniels


PART A - 1

  1 + + 4 + + 7 + + T + +  1 + + 4 + + 7 + + T + +  1 + + 4 + + 7 + + T + +  1 + + 4 + + 7 + + T + +
E|------------------------|------------------------|------------------------|------------------------|
A|------------------------|----0-2-----2---0-------|----0-2-----------------|------------------------|
D|------2---1-2---4-5---4-|5-----------------5-----|------------2-----2---4-|5---2-4---5-4---2-1-----|
G|4-----------------------|------------------------|------------------------|------------------------|

  1 + + 4 + + 7 + + T + +  1 + + 4 + + 7 + + T + +  1 + + 4 + + 7 + + T + +  1 + + 4 + + 7 + + T + +
E|------------------------|------------------------|------------------------|------------------------|
A|------------------------|----0-2---0-----2-5-----|----3-2-----------------|------------------------|
D|------2---1-2---4-5---4-|5-----------5-----------|------------2-----5---4-|2-1---2-----------2-----|
G|4-----------------------|------------------------|------------------------|------------------------|


PART A - 2

  1 + + 4 + + 7 + + T + +  1 + + 4 + + 7 + + T + +  1 + + 4 + + 7 + + T + +  1 + + 4 + + 7 + + T + +
E|------------------------|------------------------|------------------------|------------------------|
A|------------------------|----0-2-----2---0-------|----0-2-----------------|------------------------|
D|----1-2---1-2---4-5---4-|5-----------------5-----|------------2-----2---4-|5---2-4---5-4---2-1-----|
G|4-----------------------|------------------------|------------------------|------------------------|

  1 + + 4 + + 7 + + T + +  1 + + 4 + + 7 + + T + +  1 + + 4 + + 7 + + T + +  1 + + 4 + + 7 + + T + +
E|------------------------|------------------------|----------0-------------|------------------------|
A|------------------------|----0-2---0-----2-5-----|----3-2-----------------|------------------------|
D|------2---1-2---4-5---4-|5-----------5-----------|------------2-----5---4-|2-1---2-----------2-----|
G|4-----------------------|------------------------|------------------------|------------------------|


PART B - 1

  1 + + 4 + + 7 + + T + +  1 + + 4 + + 7 + + T + +  1 + + 4 + + 7 + + T + +  1 + + 4 + + 7 + + T + +
E|------0-----0-----------|0---2-3---5-3---2-0-----|----2-0-----------------|----------0-------------|
A|5---------------0-2---5-|------------------------|------------2-----2---0-|2---3-5-----5---4-2---4-|
D|------------------------|------------------------|------------------------|------------------------|
G|------------------------|------------------------|------------------------|------------------------|

  1 + + 4 + + 7 + + T + +  1 + + 4 + + 7 + + T + +  1 + + 4 + + 7 + + T + +  1 + + 4 + + 7 + + T + +
E|--0-2-0-----------------|0---2-3---5-3---2-0---2-|0-----------0-2-3-2---0-|------0-----------0-----|
A|5-----------2-----2---5-|------------------------|----5-2---5-------------|5---2-------------------|
D|------------------------|------------------------|------------------------|------------------------|
G|------------------------|------------------------|------------------------|------------------------|

  1 + + 4 + + 7 + + T + +  1 + + 4 + + 7 + + T + +  1 + + 4 + + 7 + + T + +  1 + + 4 + + 7 + + T + +
E|0---2-3---------0-2-----|------0-----------------|----0-------------------|------------------------|
A|------------------------|5---------5-2---4-5-----|------5---2-0---------0-|2---4-5-4-2-0-----------|
D|------------------------|------------------------|----------------4-5-----|----------------4-5---4-|
G|------------------------|------------------------|------------------------|------------------------|

  1 + + 4 + + 7 + + T + +  1 + + 4 + + 7 + + T + +  1 + + 4 + + 7 + + T + +  1 + + 4 + + 7 + + T + +
E|------------------------|------------0-----0-----|0---2-0-----------------|------------------------|
A|------------------------|----0-2---------------6-|------------2-----2---0-|------------------------|
D|2---0-------2---1-2---4-|5-----------------------|------------------------|5---4-2-----------2-----|
G|------4-----------------|------------------------|------------------------|------------------------|


PART B - 2

  1 + + 4 + + 7 + + T + +  1 + + 4 + + 7 + + T + +  1 + + 4 + + 7 + + T + +  1 + + 4 + + 7 + + T + +
E|------0-----0-----------|0---2-3---5-3---2-0---2-|3---2-0-----------------|----------0-------------|
A|5-----------------2---5-|------------------------|------------2-----2---0-|2---3-5-----5---4-2---4-|
D|------------------------|------------------------|------------------------|------------------------|
G|------------------------|------------------------|------------------------|------------------------|

  1 + + 4 + + 7 + + T + +  1 + + 4 + + 7 + + T + +  1 + + 4 + + 7 + + T + +  1 + + 4 + + 7 + + T + +
E|--0-2-0-----------------|0---2-3---5-3---2-0---2-|0-----------0-2-3-2---0-|------0-----------0-----|
A|5-----------2-----2---5-|------------------------|----5-2---5-------------|5---2-------------------|
D|------------------------|------------------------|------------------------|------------------------|
G|------------------------|------------------------|------------------------|------------------------|

  1 + + 4 + + 7 + + T + +  1 + + 4 + + 7 + + T + +  1 + + 4 + + 7 + + T + +  1 + + 4 + + 7 + + T + +
E|0---2-3---------7-2-----|----3-0-----------------|----0-------------------|------------------------|
A|------------------------|----------5-2---4-5-----|------5---2-0---------0-|2---4-5-4-2-0-----------|
D|------------------------|------------------------|----------------4-5-----|--------------5-4-5-4-2-|
G|------------------------|------------------------|------------------------|------------------------|

  1 + + 4 + + 7 + + T + +  1 + + 4 + + 7 + + T + +  1 + + 4 + + 7 + + T + +  1 + + 4 + + 7 + + T + +
E|------------------------|------------0-----0-----|0---2-0-----------------|------------0-3-7-12*---|
A|------------------------|----0-2---------------6-|------------2-----2---0-|----------2-------------|
D|4-2-0-----2-2---1-2---4-|5-----------------------|------------------------|5---4-2-5---------------|
G|------4-----------------|------------------------|------------------------|------------------------|


*that is a 12, not a 1 and a 2






THE POGUES AND OTHER MANDOLIN TABS

http://theinternetlol.com/mandolin/

Добавлено: 08.09.2013
Другие материалы по этой песне:
  • Аккорды и текст

Страница создана 08.09.2013
http://primanota.ru/mandolin/the-dubliners-king-of-the-fairies-chords.htm
Привет, Гость.
Предлагаем пройти революционный курс по гитаре.
Подарок от PrimaNota.Ru, забирай!