PrimaNota.ru - самый крупный в мире бесплатный архив песенных текстов, аккордов, табулатур и нот


Mandolin - Flogging molly what s left of the flag - таба, видео

Регистрация Запомнить меня
Войти через:  Facebook Google Twitter Vk Yandex Mail.ru

Mandolin - Flogging molly what s left of the flag - таба, видео

Печатать
Просмотров: 73


Slowly and mournfully:

E--------------------0--2--0---------------------
A-----0--2--0--2--4-----------4--2--0--2--4--2--0
D--4---------------------------------------------
G------------------------------------------------

E-------------------0--2--2--0-------------------
A-------0--2--0--4--------------4--2--0--2--4--2-
D-4--4-------------------------------------------
G------------------------------------------------

E-0--0--|
A-------|
D-------|
G-------|

Less mournful now:

E----0--2-2-2-0---0--------0-2-4-5----0----------
A--4------------4---4-4--4----------4----4--2--0-
D------------------------------------------------
G------------------------------------------------

E----------0-2-2-0------------------------------|
A-2-4-0--4---------4-2-0-2-4-2--0-0-------------|
D-----------------------------------------------|
G-----------------------------------------------|

Swiftly paced and cheerful:

E--------------0-2-2-0---------------------------
A--4-2-0-2-0-4---------4-2-0-2-4-2-0---0-2-0--0-2
D------------------------------------4-----------
G------------------------------------------------

E-----0-2-2-0-----------------|
A-0-4---------4-2-0-2-4-2-0-0-|
D-----------------------------|
G-----------------------------|

E---0-2-2-2-0--0--------0-2-4-5--0--------------0
A--4----------4--4-4--4---------4--4-2-0-2-4-0-4-
D------------------------------------------------
G------------------------------------------------

E-2-2-0----------------|
A------4-2-0-2-4-2-0-0-|
D----------------------|
G----------------------|



Добавлено: 28.10.2013
Другие материалы по этой песне:
  • Аккорды и текст

Страница создана 28.10.2013
http://primanota.ru/mandolin/flogging-molly-what-s-left-of-flag-chords.htm
Привет, Гость.
Предлагаем пройти революционный курс по гитаре.
Подарок от PrimaNota.Ru, забирай!