PrimaNota.ru - самый крупный в мире бесплатный архив песенных текстов, аккордов, табулатур и нот


Mandolin - Flogging molly drunken lullabies - таба, видео

Регистрация Запомнить меня
Войти через:  Facebook Google Twitter Vk Yandex Mail.ru

Mandolin - Flogging molly drunken lullabies - таба, видео

Печатать
Просмотров: 107



E---------------------------------------------|
A---------------------------------------------|
D-----0-0-0-0-2-0---5-4-2-2-2-2-4-2-0---------|
G-0-4-------------4---------------------------|

E---------------------------------------------|
A---------------------------------------------|
D-----0-0-0-0-2-0-----------------------------|
G-0-4-------------4--5-4-2-2-2-2-4-2----------|

E---------------------------------------------|
A---------------------------------------------|
D-----0-0-0-0-2-0---5-4-2-2-2-2-4-2-0---------|
G-0-4-------------4---------------------------|

E---------------------------------------------|
A---------------------------------------------|
D-----0-0-0-0---------------------------------|
G-0-4---------4-2-2-2-2-0-0-0-0-2-0-----------|

That's the solo. Hope all you flogging molly fans enjoy.

Добавлено: 19.02.2014
Другие материалы по этой песне:
  • Аккорды и текст

Страница создана 19.02.2014
http://primanota.ru/mandolin/flogging-molly-drunken-lullabies-chords.htm
Привет, Гость.
Предлагаем пройти революционный курс по гитаре.
Подарок от PrimaNota.Ru, забирай!