PrimaNota.ru - самый крупный в мире бесплатный архив песенных текстов, аккордов, табулатур и нот


Mandolin - Blood or whiskey stuck together - таба, видео

Регистрация Запомнить меня
Войти через:  Facebook Google Twitter Vk Yandex Mail.ru

Mandolin - Blood or whiskey stuck together - таба, видео

Печатать
Просмотров: 81


Song:  Stuck Together
Band:  Blood Or Whiskey
Album: Cashed Out on Culture

Tabbed by Jack Danny Daniels


PART A - high

 4 amp;  1 amp; 2 amp; 3 amp; 4 amp;  1 amp; 2 amp; 3 amp; 4 amp;  1 amp; 2 amp; 3 amp; 4 amp;  1 amp; 2 amp; 3 amp; 4 amp;
E----|--------0000----|0000------------|--------0000----|0000--3-5-0-3---|
A----|--0-2-5-----5---|----5-2-5-2-0---|--0-2-5-----5---|----5-----------|
D--55|5---------------|--------------55|5---------------|----------------|
G----|----------------|----------------|----------------|----------------|

PART A - low

 4 amp;  1 amp; 2 amp; 3 amp; 4 amp;  1 amp; 2 amp; 3 amp; 4 amp;  1 amp; 2 amp; 3 amp; 4 amp;  1 amp; 2 amp; 3 amp; 4 amp;
E----|----------------|----------------|----------------|----------------|
A----|----------------|----------------|----------------|--------0-------|
D----|------0-22220---|22220---0-------|------0-22220---|22220-5---2-5---|
G--00|0-2-4-----------|------4---4-2-00|0-2-4-----------|----------------|


PART B - high

  1 amp; 2 amp; 3 amp; 4 amp;  1 amp; 2 amp; 3 amp; 4 amp;
E|3---3---0-0-0---|--------3-3-3---|
A|----------------|5---5-----------|
D|----------------|----------------|
G|----------------|----------------|

PART B - low

  1 amp; 2 amp; 3 amp; 4 amp;  1 amp; 2 amp; 3 amp; 4 amp;
E|----------------|----------------|
A|----------------|----------------|
D|5---5---2-2-2---|0---0---5-5-5---|
G|----------------|----------------|


INTO BREAKDOWN

E-------|
A-------|
D---0---|
G-------|


PART C

  1 + + 4 + +  1 + + 4 + +  1 + + 4 + +  1 + + 4 + +
E|--------0---|------------|------------|------------|
A|5---5-5---5-|3-0-2-3-2-0-|--0---------|--0---------|
D|------------|------------|5---5-2---2-|5---5-2-----|
G|------------|------------|--------5---|------------|

  1 + + 4 + +  1 + + 4 + +  1 + + 4 + +  1 + + 4 + +
E|--------0---|------------|------------|------------|
A|5---5-5---5-|3-0-2-3-2-0-|--0-2-3-----|------------|
D|------------|------------|5-------2---|0-2---0-----|
G|------------|------------|----------5-|----5-------|


PART D

  1 + + 4 + +  1 + + 4 + +  1 + + 4 + +  1 + + 4 + +
E|0---0-0-2-0-|------------|------------|------------|
A|------------|5-2-4-5-4-2-|0-2-0-------|0-2-0-------|
D|------------|------------|------4-0-4-|------4-----|
G|------------|------------|------------|------------|

  1 + + 4 + +  1 + + 4 + +  1 + + 4 + +  1 + + 4 + +
E|0---0-0-2-0-|------------|------------|------------|
A|------------|5-2-4-5-4-2-|0-2-4-5-----|------------|
D|------------|------------|--------4-0-|2-4-0-2-----|
G|------------|------------|------------|------------|


OUT OF BREAKDOWN

E-------|
A-------|
D-------|
G---2---|





THE POGUES AND OTHER MANDOLIN TABS

http://theinternetlol.com/mandolin/

Добавлено: 09.08.2013
Другие материалы по этой песне:
  • Аккорды и текст

Страница создана 09.08.2013
http://primanota.ru/mandolin/blood-or-whiskey-stuck-together-chords.htm
Привет, Гость.
Предлагаем пройти революционный курс по гитаре.
Подарок от PrimaNota.Ru, забирай!