PrimaNota.ru - самый крупный в мире бесплатный архив песенных текстов, аккордов, табулатур и нот


Mandolin - Blood or whiskey requiem for a king - таба, видео

Регистрация Запомнить меня
Войти через:  Facebook Google Twitter Vk Yandex Mail.ru

Mandolin - Blood or whiskey requiem for a king - таба, видео

Печатать
Просмотров: 58


Song:  Requiem for a King
Band:  Blood Or Whiskey
Album: Cashed Out On Culture

Tabbed by Jack Danny Daniels

**NOTE this is a banjo song.

*When you see a set of the same close-numbers (ie 222 or even 00),
you probably need to play it MORE TIMES than shown.  There isn't
enough space in this form of a 6/8 tab to show every stroke.
Just listen to the song, and see how many times you should play a note.


PART A

  1 + + 4 + +  1 + + 4 + +  1 + + 4 + +  1 + + 4 + +
E|---0--------|--0-----0---|------------|------------|
A|5---5-5-3-5-|5---5-3---3-|3---3---3---|------------|
D|------------|------------|---5--2--222|2-0---000---|
G|------------|------------|------------|----5-----2-|


PART B

  1 + + 4 + +  1 + + 4 + +  1 + + 4 + +  1 + + 4 + +
E|------------|------------|------------|------------|
A|0--1000-----|------------|0--1000-----|------------|
D|--------3-00|----2-5--32-|--------3-00|----2-5-5-55|
G|------------|2-5---------|------------|2-5---------|

  1 + + 4 + +  1 + + 4 + +  1 + + 4 + +  1 + + 4 + +
E|------------|------------|------------|------------|
A|0--1000-----|------------|0--1000-----|------------|
D|--------3-00|----2-5--32-|--------3-00|----5-0-0000|
G|------------|2-5---------|------------|2-5---------|


PART C

  1 + + 4 + +  1 + + 4 + +  1 + + 4 + +  1 + + 4 + +
E|---0--------|------------|---0--------|------------|
A|5---555-3-00|--0-3-------|5---555-3-00|--0-3-------|
D|------------|3--------25-|------------|3-----------|
G|------------|------5-----|------------|------5-5555|


PART D

  1 + + 4 + +  1 + + 4 + +  1 + + 4 + +  1 + + 4 + +
E|----1-5---1-|5-----------|----1-5---1-|5-----------|
A|0--5----5---|---0--3-0---|0--5----5---|---0--------|
D|------------|----3-----3-|------------|----3-555-35|
G|------------|------------|------------|------------|

  1 + + 4 + +  1 + + 4 + +  1 + + 4 + +  1 + + 4 + +
E|----1-5---1-|5-----------|------------|------------|
A|0--5----5---|---0--3-0---|------------|------------|
D|------------|----3-----22|0-3-2-------|000---0-----|
G|------------|------------|------5-2-5-|----5-----5-|

PART D EXTENSION (after 2nd time)         ORDER OF THE SONG
                                          A x4
  1 + + 4 + +  1 + + 4 + +                B x2
E|------------|------------|              A x2
A|------------|------------|              B x1
D|0--32-------|000---0-----|              C x1
G|------5-2-5-|----5-------|              D x2
                                          A x2
                                          C x2
FINAL CHORD                               A x2

E|--X--|
A|--0--|
D|--3--|
G|--7--|




THE POGUES AND OTHER MANDOLIN TABS

http://theinternetlol.com/mandolin/

Добавлено: 11.12.2013
Другие материалы по этой песне:
  • Аккорды и текст

Страница создана 11.12.2013
http://primanota.ru/mandolin/blood-or-whiskey-requiem-for-a-king-chords.htm
Привет, Гость.
Предлагаем пройти революционный курс по гитаре.
Подарок от PrimaNota.Ru, забирай!