PrimaNota.ru - самый крупный в мире бесплатный архив песенных текстов, аккордов, табулатур и нот


Mandolin - Blood or whiskey majorca - таба, видео

Регистрация Запомнить меня
Войти через:  Facebook Google Twitter Vk Yandex Mail.ru

Mandolin - Blood or whiskey majorca - таба, видео

Печатать
Просмотров: 90
Уроки эстрадного вокала в Санкт-Петербурге


Song:  Majorca
Band:  Blood Or Whiskey
Album: No Time To Explain

Tabbed by Jack Danny Daniels


PART A

  1 + + 4 + +
E|----------0-|
A|------------|
D|------------|
G|------------|...

  1 + + 4 + +  1 + + 4 + +  1 + + 4 + +  1 + + 4 + +
E|5-555-5-555-|5-555-7--75-|------------|---------00-|
A|------------|------------|0-000-0-0-2-|3-333-3-3---|
D|------------|------------|------------|------------|
G|------------|------------|------------|------------|

  1 + + 4 + +  1 + + 4 + +  1 + + 4 + +  1 + + 4 + +
E|5-555-5-555-|5-555-7--75-|------------|------------|
A|------------|------------|2-222-3-3---|0-000-0-0-0-|
D|------------|------------|----------5-|------------|
G|------------|------------|------------|------------|


PART B

  1 + + 4 + +  1 + + 4 + +  1 + + 4 + +  1 + + 4 + +
E|------------|------------|------------|------------|
A|5-555-5-2-3-|2-000-0-0-0-|------------|0-----0-000-|
D|------------|------------|5-555-5-2-5-|----5-------|
G|------------|------------|------------|------------|

  1 + + 4 + +  1 + + 4 + +  1 + + 4 + +  1 + + 4 + +
E|------------|------------|------------|------------|
A|5-555-5-2-3-|2-000-0-0-0-|------------|0-----0-000-|
D|------------|------------|5-555-5-2-5-|----5-------|
G|------------|------------|------------|------------|

  1 + + 4 + +  1 + + 4 + +  1 + + 4 + +  1 + + 4 + +
E|------------|------------|------------|------------|
A|3-333-3-2-3-|5-555-5-5-3-|2-222-2-2-0-|2-222-----0-|
D|------------|------------|------------|------------|
G|------------|------------|------------|------4-----|

  1 + + 4 + +  1 + + 4 + +  1 + + 4 + +  1 + + 4 + +
E|------------|------------|0-000-0-0---|0-555-5-3-0-|
A|3-333-3-2-3-|5-555-5-3-5-|----------5-|------------|
D|------------|------------|------------|------------|
G|------------|------------|------------|------------|


PART C

  1 + + 4 + +  1 + + 4 + +  1 + + 4 + +  1 + + 4 + +
E|------------|------0-000-|1-11--1-11--|------1-111-|
A|0-000-0-0-2-|3-333-------|----3-----3-|0-000-------|
D|------------|------------|------------|------------|
G|------------|------------|------------|------------|

  1 + + 4 + +  1 + + 4 + +  1 + + 4 + +  1 + + 4 + +
E|0-----0-----|0-----0-----|------------|----------00|
A|--0-3---0-3-|--0-3---3-3-|2-222-3-2---|0-000-0-0---|
D|------------|------------|----------5-|------------|
G|------------|------------|------------|------------|


PART D

  1 + + 4 + +
E|----------0-|
A|------------|
D|------------|
G|------------|...

  1 + + 4 + +  1 + + 4 + +  1 + + 4 + +  1 + + 4 + +
E|5-555-5-555-|8-888-8-888-|5-555-5-3-0-|0-000-8-887-|
A|------------|------------|------------|------------|
D|------------|------------|------------|------------|
G|------------|------------|------------|------------|

  1 + + 4 + +  1 + + 4 + +  1 + + 4 + +  1 + + 4 + +
E|5-555-5-555-|8-888-8-888-|5--30-------|------------|
A|------------|------------|------5-2---|0-----0-----|
D|------------|------------|----------5-|----5-------|
G|------------|------------|------------|------------|





THE POGUES AND OTHER MANDOLIN TABS

http://theinternetlol.com/mandolin/


Добавлено: 17.08.2013
Другие материалы по этой песне:
  • Аккорды и текст

Страница создана 17.08.2013
http://primanota.ru/mandolin/blood-or-whiskey-majorca-chords.htm
Привет, Гость.
Предлагаем пройти революционный курс по гитаре.
Подарок от PrimaNota.Ru, забирай!