PrimaNota.ru - самый крупный в мире бесплатный архив песенных текстов, аккордов, табулатур и нот


Mandolin Orange - Clover Tune - аккорды и текст, видео

Регистрация Запомнить меня
Войти через:  Facebook Google Twitter Vk Yandex Mail.ru

Mandolin Orange - Clover Tune - аккорды и текст, видео

Печатать
Просмотров: 72
Новый альбом группы 'Черный Кузнец' по культовому сериалу 'Сверхъестественное'!
Clover Tune
Mandolin Orange
Capo 4

[Chords]
F7M/C    E7     E7sus4
||||X|  |||X||  ||||||
|||X||  |XX|||  |X|X||  
|XX|||  ||||X|  ||||X|  
||||||  ||||||  ||||||
||||||  ||||||  ||||||

[Intro]
e|-------------------------------------------------------------------|
B|-------------------------------------------------------------------|
G|---------0--2/4----4/2--0------------------------------------------|
D|--0-H--------------------0-H-----3----3--2--0-----0-H---0-------|
A|-------------------------------------------------3-----------3--2--|
E|-------------------------------------------------------------------|

e|-----------------------------0-------------------------------------|
B|--------------------------------1----------------------------------|
G|----------------------------------2------------0--2/4--4/5-5--4--5-|
D|--------------------------2---------2----0-H----------------------|
A|--2--2-H---3--2--0----0-------------------------------------------|
E|-------------------------------------------------------------------|

e|-------------------------------------------------------------------|
B|-------------------------------------------------------------------|
G|--4--5--4--2--0----------------------------------------------------|
D|------------------0-H---2--3--0-----------------------------------|
A|-----------------------------------0-H--2-H--3--2--0-------------|
E|-------------------------------------------------------------------|

[Verse]
Am                           C/G
You used to like untruly, so kindly
           G                        Am
 And it left; you're lying here in ruin
Am                    C/G
You cut the hand of a good friend
               G          Am
 And you smile in all you do

[Chorus]
          F7M/C                 C/G
Got a hole burning in your brain
        G                                   F
Just north of the last line on a southbound train
             Am                      E7               G
Wonder why you look all over just to find a four-leaf clover
                     F              E7sus4  Am
And as you pick it, it just withers away

[Verse]
Am                                       C/G
But now you live so true, mysterious and blue
     G                     Am
Waking up each morning all alone
             Am                   C/G
You sip black coffee but you hate the taste
       G                                   Am
And your crown of thorns weighs heavies at home

[Chorus]
          F7M/C            C/G
Got a hole burning in your heart
        G                       F
Where once before  you love is overflowing
             Am                      E7                     G
And you hate the sky for crying and you love the same sky when it's smiling
                     F                           E7sus4    Am
Peeking through the blinds is your only means of knowing

[Outro]
          F7M/C           C/G
Are you not your mother's son?
        G                              F
Once on the run for throwing stones at old windows
Am                                  C/G
But you live so freely, and you walk so easy
           G                              Am
Leaning with whichever way the wind would blow
Добавлено: 22.01.2018
Другие материалы по этой песне:
  • Аккорды и текст

Страница создана 22.01.2018
http://primanota.ru/mandolin-orange/clover-tune-chords.htm
Привет, Гость.
Предлагаем пройти революционный курс по гитаре.
Подарок от PrimaNota.Ru, забирай!