PrimaNota.ru - самый крупный в мире бесплатный архив песенных текстов, аккордов, табулатур и нот


Mandolin Orange - Calvary - таба, видео

Регистрация Запомнить меня
Войти через:  Facebook Google Twitter Vk Yandex Mail.ru

Mandolin Orange - Calvary - таба, видео

Печатать
Просмотров: 46
-------------------------------------------------------------------------------
                             Calvary - Mandolin Orange
-------------------------------------------------------------------------------
Tabbed by:Heath-C
E-mail:

Tuning: standard capo 3

This is my first tab and I know there are a lot of mistakes, omissions, and a few minor
variations to the way Andrew plays it but I think the notes and chords are basically
correct. I watched a video on youtube from a Duckpond Pottery concert (right down the 
road from me in Brevard NC) and you can see the chords he plays pretty clearly. He appears to
add a note to his Dm, Barres the F Chord at the end of the first verse, and adds a few 
more hammer ons that I have here but I was not able to hear the difference from this 
version. https://www.youtube.com/watch?v=GMBRB3gaJgo
I did not place tablature for the intermediate strumming. The root notes seems to lead
the song and the strumming fills in the gaps. If you listen to the song you will know
what to do. Feedback is welcome.

    F
e|-------------------------------------------------------------1-------------1--|
B|-------------------------------------------------------------1-------------1--|
G|------------0---ho2--0---------------------------------------2----------------|
D|---2---3-----------------3---2--oh2---oh3--2--0--------------3-------------3--|
A|--------------------------------------------------3----0--------0--2--3----3--|
E|------------------------------------------------------------------------------|

e|------------------------------------------------------------------3------------|
B|------------------------------------------------------------------3------------|
G|----------------2-----2-----2------------2------2-----2------------------------|
D|---0---2---3-------3-----3-----3--2--0-------3-----3-----3--2--0---------------|
A|------------------------------------------------------------------2---oh2------|
E|------------------------------------------------------------------3---------3--|


               C                                   Am           G          F
e|--------------------------------------------------------------3---------1----|
B|-------------1----------------1-------------------1---------------------1----|
G|--------------------------------------------------2---------------------2----|
D|-------------2------------------------------------2------------------3--3----|
A|---------3---3-----------2----2---------------0---0-----------2--------------|
E|----------------------------------------------------------3---3--------------|
    I've   carried   the   world   on    my    back   with  no  more  to   obtain

    Dm                                                                              G
e|--1----------------------------------------------------------------3---------|
B|--2----------------------------------------------------------------3---------|
G|--3--------------------------------------------------------------------------|
D|-----------------------------------------------------------------------------|
A|-------------------------------------------------------------------2------h2-|
E|-------------------------------------------------------------------3---------|
    The  fire in  the   sky   a  dim   light  in   my  eye  that's  long  faded

               C                                   Am           G          F
e|--------------------------------------------------------------3---------1----|
B|-------------1----------------1-------------------1---------------------1----|
G|--------------------------------------------------2---------------------2----|
D|-------------2------------------------------------2------------------3--3----|
A|---------3---3-----------2----2---------------0---0-----------2--------------|
E|----------------------------------------------------------3---3--------------|
  And I've stood where  heroes have    fallen their  names turned to  stone


    Dm                                                                              G
e|--1----------------------------------------------------------------3---------|
B|--2----------------------------------------------------------------3---------|
G|--3--------------------------------------------------------------------------|
D|-----------------------------------------------------------------------------|
A|-------------------------------------------------------------------2------h2-|
E|-------------------------------------------------------------------3---------|
    Yet I   remain   nameless   best   friend   a   hero    has      known

     Am                                 C                                 F
e|----------------------------------------------------------------------1-----|
B|----1---------------------------------1-------------------------------1-----|
G|----2---------------------------------2-------------------------------2-----|
D|----2---------------------------------3-------------------------------3-----|
A|----------------------------------------------------------------------------|
E|----------------------------------------------------------------------------|
     Now      I'm      saving      my    strength           for         running

               C                                   Am           G          F
e|--------------------------------------------------------------3---------1----|
B|-------------1----------------1-------------------1---------------------1----|
G|--------------------------------------------------2---------------------2----|
D|-------------2------------------------------------2------------------3--3----|
A|---------3---3-----------2----2---------------0---0-----------2--------------|
E|----------------------------------------------------------3---3--------------|
          These         days      I'm   saving      my  strength  for running

               C                                   Am           G          F
e|--------------------------------------------------------------3---------1----|
B|-------------1----------------1-------------------1---------------------1----|
G|--------------------------------------------------2---------------------2----|
D|-------------2------------------------------------2------------------3--3----|
A|---------3---3-----------2----2---------------0---0-----------2--------------|
E|----------------------------------------------------------3---3--------------|
 From the  age  of         kings    when    pride     decided    all      fate

    Dm                                                                              G
e|--1----------------------------------------------------------------3---------|
B|--2----------------------------------------------------------------3---------|
G|--3--------------------------------------------------------------------------|
D|-----------------------------------------------------------------------------|
A|-------------------------------------------------------------------2------h2-|
E|-------------------------------------------------------------------3---------|
    Long before war machines took   charge   and   I    had      to   wait.?

               C                                   Am           G          F
e|--------------------------------------------------------------3---------1----|
B|-------------1----------------1-------------------1---------------------1----|
G|--------------------------------------------------2---------------------2----|
D|-------------2------------------------------------2------------------3--3----|
A|---------3---3-----------2----2---------------0---0-----------2--------------|
E|----------------------------------------------------------3---3--------------|
  It was    blind hope and blinders, with young men to   carry      between

    Dm                                                                              G
e|--1----------------------------------------------------------------3---------|
B|--2----------------------------------------------------------------3---------|
G|--3--------------------------------------------------------------------------|
D|-----------------------------------------------------------------------------|
A|-------------------------------------------------------------------2------h2-|
E|-------------------------------------------------------------------3---------|

   All  the  death  and  the   glory  believing they're  one  and  the  same

     Am                                 C                                 F
e|----------------------------------------------------------------------1-----|
B|----1---------------------------------1-------------------------------1-----|
G|----2---------------------------------2-------------------------------2-----|
D|----2---------------------------------3-------------------------------3-----|
A|----------------------------------------------------------------------------|
E|----------------------------------------------------------------------------|
     Now      I'm      saving      my    strength           for         running

               C                                   Am           G          F
e|--------------------------------------------------------------3---------1----|
B|-------------1----------------1-------------------1---------------------1----|
G|--------------------------------------------------2---------------------2----|
D|-------------2------------------------------------2------------------3--3----|
A|---------3---3-----------2----2---------------0---0-----------2--------------|
E|----------------------------------------------------------3---3--------------|
          These         days      I'm   saving      my  strength  for running

               C                                   Am           G          F
e|--------------------------------------------------------------3---------1----|
B|-------------1----------------1-------------------1---------------------1----|
G|--------------------------------------------------2---------------------2----|
D|-------------2------------------------------------2------------------3--3----|
A|---------3---3-----------2----2---------------0---0-----------2--------------|
E|----------------------------------------------------------3---3--------------|
    I've  carried   the   world   on   my  back with no   more to    obtain

    Dm                                                               G
e|--1----------------------------------------------------------------3---------|
B|--2----------------------------------------------------------------3---------|
G|--3--------------------------------------------------------------------------|
D|-----------------------------------------------------------------------------|
A|-------------------------------------------------------------------2------h2-|
E|-------------------------------------------------------------------3---------|
   The sword  and the shield     perched    upon    saddles   and   reins

               C                                   Am           G          F
e|--------------------------------------------------------------3---------1----|
B|-------------1----------------1-------------------1---------------------1----|
G|--------------------------------------------------2---------------------2----|
D|-------------2------------------------------------2------------------3--3----|
A|---------3---3-----------2----2---------------0---0-----------2--------------|
E|----------------------------------------------------------3---3--------------|
  But the stampedes of     thunder, the        cavalry's charge  leaves me      now


    Dm                                                                G
e|--1----------------------------------------------------------------3---------|
B|--2----------------------------------------------------------------3---------|
G|--3--------------------------------------------------------------------------|
D|-----------------------------------------------------------------------------|
A|-------------------------------------------------------------------2------h2-|
E|-------------------------------------------------------------------3---------|
   Your  last  war  will  come    but    I  can  not    follow   you   down

     Am                                 C                                 F
e|----------------------------------------------------------------------1-----|
B|----1---------------------------------1-------------------------------1-----|
G|----2---------------------------------2-------------------------------2-----|
D|----2---------------------------------3-------------------------------3-----|
A|----------------------------------------------------------------------------|
E|----------------------------------------------------------------------------|
     Now      I'm      saving      my    strength           for         running


               C                                   Am           G          F
e|--------------------------------------------------------------3---------1----|
B|-------------1----------------1-------------------1---------------------1----|
G|--------------------------------------------------2---------------------2----|
D|-------------2------------------------------------2------------------3--3----|
A|---------3---3-----------2----2---------------0---0-----------2--------------|
E|----------------------------------------------------------3---3--------------|
          These         days      I'm   saving      my  strength  for running


************************************

| /   slide up
| \   slide down
| h   hammer-on
| p   pull-off
| ~   vibrato
| +   harmonic
| x   Mute note
| b   Bend
| pb  Pre-bend
| br  Bend release
| pbr Pre-bend release
| brb Bend release bend

************************************
Добавлено: 08.12.2015
Другие материалы по этой песне:
  • Аккорды и текст

Страница создана 08.12.2015
http://primanota.ru/mandolin-orange/calvary-chords.htm
Привет, Гость.
Предлагаем пройти революционный курс по гитаре.
Подарок от PrimaNota.Ru, забирай!